She Will Be Loved (Riff) Uke tab by Maroon 5

Ukulele Tab without chords.

Add tab to your SongBook
Tablature / ChordsFont size: A- A A+

Don't know how to read a tab or a chord ? Check out these uke lessons:

Detailed guide to strumming and picking
How to read uke tabs
Reading chord diagrams

A|-------------------------------------------|
E|--------1--1--1--1---3----0------0-----0---|
C|---2----2--2--2--2---0----0---0-----0------|
G|-------------------------------------------|


A|----------------------------------------|
E|-------1--1--1--1-----3----0---0--------|
C|---2---2--2--2--2-----0----0---0--------|
G|----------------------------------------|

~Repeat~

 

Tab comments (1)
You must be logged in to join the discussion
or Register

 

clemdjd avatar
it works for the verse but this is far from the whole song you still need the chorus and bridge
18 Apr 2013
About this song

"She Will Be Loved" is the third single from the Californian band Maroon 5's 2002 debut album, Songs About Jane. Released in 2004, the single peaked at #5 in the USA becoming Maroon 5's second Top 10 single; it also peaked at #4 in the UK. The song reached #1 in Australia and remained at the top for 5 non-consecutive weeks; it also peaked at #2 in Latin America becoming Maroon 5's second consecutive Top 3. The song also reached #1 on the world-wide chart. The single is noted for its music video which stars Kelly Preston.