Misery Uke tab by Maroon 5

Ukulele Tab without chords.

Add tab to your SongBook
Tablature / ChordsFont size: A- A A+

Don't know how to read a tab or a chord ? Check out these uke lessons:

Detailed guide to strumming and picking
How to read uke tabs
Reading chord diagrams

A|-----7--3--------7--3-----|-----7--3--------7--3-----|
E|--3-----------3-----------|--3-----------3-----------|
C|--------------------------|--------------------------|
G|-----------0-----------0--|-----------0-----------0--|

A|-----6--2--------6--2-----|-----6--2--------6--2-----|
E|--2-----------2-----------|--2-----------2-----------|
C|--------------------------|--------------------------|
G|-----------2-----------2--|-----------2-----------2--|

A|-----7--3--------7--3-----|-----7--3--------7--3-----|
E|--3-----------3-----------|--3-----------3-----------|
C|--------------------------|--------------------------|
G|-----------0-----------0--|-----------0-----------0--|

A|--------2-----------2--2--|--------2-----------2-----|
E|--------------------------|--------------------------|
C|--6--3--------6--3--------|--6--3--------6--3--------|
G|-----------2--------------|-----------2-----------0--|

A|-----------3-----------3--|-----------3-----------3--|
E|--------0-----------0-----|--------0-----------0-----|
C|--0-----------0-----------|--0-----------0-----------|
G|-----0-----------0--------|-----0-----------0--------|

A|--2--------2--2--------2--|--2--------2--2--------2--|
E|--------------------------|--------------------------|
C|--------3-----------3-----|--------3-----------3-----|
G|-----2-----------2--------|-----2-----------2--------|

A|--------2-----------2-----|--0--------3--0--------3--|
E|-----0-----------0--------|--------0-----------0-----|
C|--4-----------4-----------|--------------------------|
G|-----------0-----------0--|-----2-----------2--------|

A|-----------5-----------5--|-----------5-----------5--|
E|--------------------------|--3-----------3-----------|
C|--2-----2-----2-----2-----|--------2-----------2-----|
G|-----2-----------2--------|-----0-----------0--------|

A|--------2-----------2-----|--0--------3--0--------3--|
E|-----0-----------0--------|--------0-----------0-----|
C|--4-----------4-----------|--------------------------|
G|-----------0-----------0--|-----2-----------2--------|

A|-----------5-----------5--|-----------5-----------5--||
E|--------------------------|--3-----------3-----------||
C|--2-----2-----2-----2-----|--------2-----------2-----||
G|-----2-----------2--------|-----0-----------0--------||

 

Tab comments (0)
No comment yet :(
Need help, a tip to share, or simply want to talk about this song? Start the discussion!

You must be logged in to join the discussion
or Register

 

About this song

"Misery" is a track by Maroon 5 from their third studio album Hands All Over.According to the Misery Songfacts, the song documents the decay of a relationship, familiar territory for Maroon 5. Frontman Adam Levine told MTV News: "Relationships are difficult, and it's good therapy to write about them."Read more on Last.fm.