Girls Like You (Riff) Uke tab by Maroon 5

Ukulele Tab without chords.

Add tab to your SongBook
Tablature / ChordsFont size: A- A A+

Don't know how to read a tab or a chord ? Check out these uke lessons:

Detailed guide to strumming and picking
How to read uke tabs
Reading chord diagrams

A|--0--0--0--0--0---------------------------------|
E|-----------------3--2---------------------------|
C|-----------------------2------------------------|
G|------------------------------------------------|



A|--0--0--0--0--0---------------------------------|
E|-----------------3--2--0--2--0--0--2--0---------|
C|-----------------------------------------2------|
G|------------------------------------------------|



A|--0--0--0--0--0---------------------------------|
E|-----------------3--2---------------------------|
C|-----------------------2------------------------|
G|------------------------------------------------|



A|--0--0--0--0--0--2------------------------------|
E|--------------------3---------------------------|
C|-----------------------2------------------------|
G|------------------------------------------------|



A|--0--0--0--0--0---------------------------------|
E|-----------------3--2--0--2--0--0--2--0---------|
C|-----------------------------------------2------|
G|------------------------------------------------|


PS. I do not made this.
link: https://youtu.be/PO5g0qYq30g (Mr Heartache)

Thank You :)

 

Tab comments (1)
You must be logged in to join the discussion
or Register

 

Edgarfvr avatar
esta genial☺☺☺☺☺☺☺☺☺
04 Apr 2020
About this song

No information about this song.