Wonderful World (dgbe) Uke tab by Louis Armstrong

Ukulele Tab without chords.

Add tab to your SongBook
Tablature / ChordsFont size: A- A A+

Don't know how to read a tab or a chord ? Check out these uke lessons:

Detailed guide to strumming and picking
How to read uke tabs
Reading chord diagrams

e|-------1------|--------3-----|-------1------|------3----------------------|
B|-----1---1----|------3---3---|-----1---1----|----3------------------------|
G|---2-------2--|----3------3--|---2-------2--|--3--------------------------|
D|-3------------|-5------------|-3------------|-5---------------------------|

e|-------1------|-------0------|--------------|-------0------|-------3------|
B|-----1---1----|-------1------|-------3------|-------1------|-----3---3----|
G|---2-------2--|-----0---0----|-----3---3----|------0---0---|---3-------3--|
D|-3------------|---2-------3--|---3-------3--|---3--------3-|-5------------|

e|--------1-------|----------------|-------1--------|-------1--------|
B|------1----1----|--------2-------|-----3----3-----|-----2----2-----|
G|----2--------1--|-----0-----0----|---2---------2--|---1--------1---|
D|-3--------------|---2---------2--|-0--------------|----------------|

 

Tab comments (2)
You must be logged in to join the discussion
or Register

 

story92 avatar
flag for US(ISO2) (O'Fallon)
almost there
12 Apr 2011
cono the guitar avatar
Wrong chord progression? Kind of confusing too.
06 Apr 2011
About this song

No information about this song.