What A Wonderful World Uke tab by Louis Armstrong

Ukulele Tab without chords.

Add tab to your SongBook
Tablature / ChordsFont size: A- A A+

Don't know how to read a tab or a chord ? Check out these uke lessons:

Detailed guide to strumming and picking
How to read uke tabs
Reading chord diagrams

||-0-----0-----1-----1-----0-----0-----1-------------|
||-1---1---1-----1-----1-----1-----1-----1---0---0---|
||---0-------0-----2-----2-----0-----0-----2---0-----|
||-2-----------3-----------2-----------3-----0-------|

^ ^
|-----------3---------1---5-5-5-3---3--3--1---1-1-1-|
|-1---1-0-1-0---0--0--1---6-----5---5--5--3---3-----|
|-0---0-----0---0--0--2---5-----4---4--4--2---2-----|
|-2---2-----2---2--2--3-------------------0---0-----|

^ ^
|-0---0--0----------------0-------------------------|
|-1---1--1--0---3-3-3-1---1-1-0-1--1--1--1---1--1---|
|-0---0--0--1---1-----2---2-----1--------1---1--1---|
|-2---2--2--2---2-----2---2-----1--------1---1--1---|

^ ^ ^
|-1---1--------------0---0--0--0---0--0--1---1--1---|
|-1---1-1-1-0--1-/3--1---1--0--1---1--1--1---1--1---|
|-2---2-2-2-0--2-/4--0---0--0--1---1--1--2---2--2---|
|-0---0--------------2---2--0--2---2--2--0---0--0---|

^ ^
|-3---3---------------3---------1---5-5-5-3---3--3--|
|-0---0---0-1---1-0-1-0---0--0--1---6-----5---5--5--|
|-0---0-0---0---0-----0---0--0--2---5-----4---4--4--|
|-0---0-----2---2-----2---2--2--3-------------------|

^
|-1---1-1-1-0---0--0----------------0---------------|
|-3---3-----1---1--1--0---3-3-3-1---1-1-0-1--1--1---|
|-2---2-----0---0--0--1---1-----2---2-----1---------|
|-0---0-----2---2--2--2---2-----2---2-----1---------|

^
|-----------1---1--------------0-------0-1-------1--|
|-1---1--1--1---1-1-1-0--1-/3--1-----1---1-----1----|
|-1---1--1--2---2-2-2-0--2-/4--0---0-----2---2------|
|-1---1--1--0---0--------------2---------3----------|

|---------1---0---0---------3----------3----0--0----|
|---1---1---1-1---1--1-3--3-3-3-3-3--3-3--3-1----1--|
|-----2-----------0----0----0-----0----0----0----0--|
|-3-----------2---2----0----0-----0----0----2----2--|

|-0---0---0---------3----------3--0-1--0---0---0----|
|---4-1---1--1-3--3-3-3-3-3--3-3----1----1---4-1----|
|-----0---0----0----0-----0----0----0----0-----0----|
|-----2---2----0----0-----0----0----2----2-----2----|

^ ^
|-0--3-5--5---5---3---3--3--5---5-5-5-3---3--3--5---|
|------5----5---5-3---3--3--5---5-----3---3--3--5---|
|------5----5-----4---4--4--5---5-----4---4--4--5---|
|------7----------5---5--5--7---7-----5---5--5--7---|

|-5-5-0-3------3--1--0------3-----|
|-5-----2---2-----1--1--3---3---0-|
|-5-----3---3-----2--1--0---0-0---|
|-7-----2---2-----0--2--0---0-----|

^ ^
|-----------3---------1---5-5-5-3---3--3--1---1-1-1-|
|-1---1-0-1-0---0--0--1---6-----5---5--5--3---3-----|
|-0---0-----0---0--0--2---5-----4---4--4--2---2-----|
|-2---2-----2---2--2--3-------------------0---0-----|

^ ^
|-0---0--0----------------0-------------------------|
|-1---1--1--0---3-3-3-1---1-1-0-1--1--1--1---1--1---|
|-0---0--0--1---1-----2---2-----1--------1---1--1---|
|-2---2--2--2---2-----2---2-----1--------1---1--1---|

|-1---1--------------0---0--------0---0---0---------|
|-1---1-1-1-0--1-/3--1---1--0-3---3---2---2--2/3---2|
|-2---2-2-2-0--2-/4--0---0----1---1---0---0---------|
|-0---0--------------2---2----2---2---2---2--2/3---2|

|-0-0--------------0---1----------------0-----0-----|
|---1--1--1h3--1---1---1---1-1-0--1-/3--1---1---1---|
|---2--------------2---2-------0--2-/4----0-------0-|
|----------------------0-------0--------2-----------|

|-1-----1-----5-----5-----8--||
|---1-----1-----6-----6---5--||
|-----2-----2-----5-----5-5--||
|-3-----------7-----------5--||

^ = upstroke
/ = slide up

This is the actual full tablature to what a wonderful world (loius armstrong)

 

Tab comments (1)
You must be logged in to join the discussion
or Register

 

tacocat52 avatar
This is amazing and beautiful to play/listen to! It's a bit hard, of course, but I can't wait to perfect this!
09 Oct 2019
About this song

What a Wonderful World is a song by Bob Thiele (using the pseudonym George Douglas) and George David Weiss. It was first recorded by Louis Armstrong and released as a single in 1968, and was inducted in the Grammy Hall of Fame in 1999. Intended as an antidote for the increasingly racially and politically charged climate in the U.S. (and written specifically for Armstrong, who had broad crossover appeal), the song details the singer's delight in the simple enjoyment of everyday life.