Go Down Moses Uke tab by Louis Armstrong

6 Chords used in the song: Fmaj,E7,D,Am7,E6,A5

Add tab to your SongBook
Tablature / ChordsFont size: A- A A+

Don't know how to read a tab or a chord ? Check out these uke lessons:

Detailed guide to strumming and picking
How to read uke tabs
Reading chord diagrams

# Intro :  

A|-0-0---5-5---7-7-5-7-7-5\3-0---3\0------|
E|-5-5---5-5---5-5-5-5-5-5\3-0---3\0-3\0--|
C|-----------------------------------3\0--|
G|----------------------------------------|

A|-x-x-x-x-0-|
E|-0-0-4-4-5-|
C|-0-0-4-4-4-|
G|-x-x-x-x-2-|

A|-0\5-5-3\0-5-3-0-5-0--0-5---0-0-5-------|
E|----------------------0---5-----5-5-----|
C|----------------------------------------|
G|----------------------------------------|

# Verse chords:
Fmaj Fmaj E7 E7 D D Am7 Am7 E6 E6 A5 A5
A|-3-----2-----0----x-----x-----0---------|
E|-1-----0-----2----0-----4-----5---------|
C|-0-----2-----2----0-----4-----4---------|
G|-2-----1-----2----x-----x-----2---------|


# Chorus :
A|-0---0---0-0--5-5--7-x-7-x-7-7-5-3-0----|
E|-5---5---5-5--5-5--5-x-5-x-5-5-5-3-0----|
C|-4-4-4-4--------------------------------|
G|-x---x----------------------------------|
# (-lign1-)(-lign2-)(------lign3------)----

A|-3-0---0-x---x-x-x-x-0------------------|
E|-1-2---2-0---0-0-4-4-5------------------|
C|-0-2---2-0---0-0-4-4-4------------------|
G|-2-2---2-x---x-x-x-x-2------------------|
# (--lign4--)(---lign5---)-----------------

# Intro :

Go down Moses
way down in Egypt land
Tell all Pharaohs
to let My people go

# Verse :

Fmaj Fmaj E7 E7 Fmaj Fmaj D D
When Israel was in Egypt land

Am7 Am7 E6 E6 A5 A5
Let My people go

Fmaj Fmaj E7 E7 Fmaj Fmaj D D
Oppressed so hard they could not stand

Am7 Am7 E6 E6 A5 A5
Let My people go

# Chorus :

So the God seyeth,
“Go down, Moses
way down in Egypt land
Tell all Pharaohs
to let My people go”

# Verse :

Fmaj Fmaj E7 E7 Fmaj Fmaj D D
So Moses went to Egypt land

Am7 Am7 E6 E6 A5 A5
Let My people go

Fmaj Fmaj E7 E7 Fmaj Fmaj D D
He made all Pharaohs understand

Am7 Am7 E6 E6 A5 A5
Let my people go

# Chorus :

Yes The Lord said,
“Go down, Moses
way down in Egypt land
Tell all Pharaohs
to let My people go”

# Verse :

Fmaj Fmaj E7 E7 Fmaj Fmaj D D
Thus spoke the Lord, bold Moses said

Am7 Am7 E6 E6 A5 A5
Let My people go

Fmaj Fmaj E7 E7 Fmaj Fmaj D D
If not I'll smite, your firstborns dead”

Am7 Am7 E6 E6 A5 A5
Let My people go

# Chorus :

God, The Lord said,
“Go down, Moses
way down in Egypt land
Tell all Pharaohs
to let My people go”

# Repeat lign4 and lign5 again :

Tell all Pharaohs
to let My people go


# there're also an outro and some riffs between each verses and i'm still working on it

 

Tab comments (0)
No comment yet :(
Need help, a tip to share, or simply want to talk about this song? Start the discussion!

You must be logged in to join the discussion
or Register

 

About this song

No information about this song.