Love Yourself (Riff) Uke tab by Justin Bieber

Ukulele Tab without chords.

Add tab to your SongBook
Tablature / ChordsFont size: A- A A+

Don't know how to read a tab or a chord ? Check out these uke lessons:

Detailed guide to strumming and picking
How to read uke tabs
Reading chord diagrams

INTRO:                                                                                
A|-------------------7-7-----------------------------------------------------|
E|---4-4-----2-2-----------5-5-----4-4-----2-2-------------------------------|
C|---------------------------------------------------------------------------|
G|---------------------------------------------------------------------------|

A|-------------------7-7-----------------------------------------------------|
E|---4-4-----2-2---------------5--5------4-4-----2-2-------------------------|
C|---------------------------------------------------------------------------|
G|---------------------------------------------------------------------------|

RIFF:
A|---------------------------------------------------------------------------------|
E|-------4-----4---------------4-----4--------4-------4-----4--------5--4----------|
C|----------------6--4-4----------------6--4-------------------6--4--------6--4--4-|
G|----4-----4---------------4-----4----------------4-----4-------------------------|

A|---------------------------------------------------------------------------------|
E|-------4-----4---------------4-----4--------4-------4-----4--------5--4----------|
C|----6--4--6--4--6--4-4----6--4--6--4--6--4--4----6--4--6--4--6--4--6--4--6--4--4-|
G|----4-----4-----6--4-4----4-----4-----6--4-------4-----4-----6--4--------6--4--4-|

 

Tab comments (0)
No comment yet :(
Need help, a tip to share, or simply want to talk about this song? Start the discussion!

You must be logged in to join the discussion
or Register

 

About this song

"Love Yourself" is a song recorded by Canadian singer Justin Bieber for his fourth studio album Purpose (2015). The song features uncredited vocals from Ed Sheeran. Bieber co-wrote the song with Sheeran and Benny Blanco; the latter is also the producer."Love Yourself" was an international commercial success, reaching number one on the Canadian Hot 100, the US Billboard Hot 100, where it spent 24 nonconsecutive weeks in the Top 10 (where it became Bieber's third consecutive number-one in both countries), and the UK Singles Chart. Read more on Last.fm.