White Rabbit (Intro) Uke tab by Jefferson Airplane

Ukulele Tab without chords.

Add tab to your SongBook
Tablature / ChordsFont size: A- A A+

Don't know how to read a tab or a chord ? Check out these uke lessons:

Detailed guide to strumming and picking
How to read uke tabs
Reading chord diagrams

S   S S   S                   S                     
----------------------------------------------------------
5---2-----2/3/5------2h3h2---------------2----------------
C-----1/2-------3/4--------4--2---------------------------
G-------------------------------6---4/2----3--------------

---9/10-5\4(44)/5-9/10-9--5-4--2-4-5-4---2-4-5--4--2--5-----
--------------------------------------------------------2---
C-----------------------------------------------------------
G-----------------------------------------------------------

 

Tab comments (0)
No comment yet :(
Need help, a tip to share, or simply want to talk about this song? Start the discussion!

You must be logged in to join the discussion
or Register

 

About this song

"White Rabbit" was written by Grace Slick, who based the lyrics on Lewis Carroll's book Alice In Wonderland. Like many young musicians in San Francisco, Slick did a lot of drugs. She saw lots of drug references in Carroll's book, including the pills, the smoking caterpillar, the mushroom, and lots of other images that are generally trippy. She noticed that lots of childrens stories involve a substance of some kind that alters reality, and felt it was time to write a song about it.