The Rainbow Connection Uke tab by Jason Mraz

7 Chords used in the song: A, F#m, D, E, Dmaj7, C#m7, Bm

Add tab to your SongBook
Tablature / ChordsFont size: A- A A+

Don't know how to read a tab or a chord ? Check out these uke lessons:

Detailed guide to strumming and picking
How to read uke tabs
Reading chord diagrams

A|-------4-----4-------------5------|
E|----5-----5-----5-------2---------|
C|-4-------------------2------------|
G|----------------------------------| 2x

A A F#m F#m
Why are there so many
D D E E
Songs about Rainbows
A A F#m F#m D D E E
And what?s on the other side
-------------------------------------------------
A A F#m F#m
Rainbows are visions
D D E E
But only illusions
A A F#m F#m D D E E
And Rainbows have nothing to hide
-------------------------------------------------
Dmaj7 Dmaj7
What?s so amazing that it keeps us star gazing
C#m7 C#m7
And what do they think we might see
-------------------------------------------------
Bm Bm E E
Someday we'll find it
A A F#m F#m
The Rainbow Connection
Bm Bm E E A A D D A A E E
The lovers, the dreamers and me
-------------------------------------------------
A A F#m F#m
Have you been half asleep
D D E E
And have you heard the voices
A A F#m F#m D D E E
Well, I've heard them calling my name
-------------------------------------------------
A A F#m F#m
Is this the sweet sound
D D E E
That calls the young sailors
A A F#m F#m D D E E
The voice might be one and the same
-------------------------------------------------
Dmaj7 Dmaj7
I've heard it too many, many times to ignore it
C#m7 C#m7
Oh, who did I think it could be
-------------------------------------------------
Bm Bm E E
Well someday we'll find it
A A F#m F#m
The Rainbow Connection
Bm Bm E E A A D D A A E E
The lovers, the dreamers and me
-------------------------------------------------
Bm Bm E E
Someday we'll find it
A A F#m F#m
The Rainbow Connection
Bm Bm E E
The lovers oh, the dreamers and me

A|-------4-----4-------------5------|
E|----5-----5-----5-------2---------|
C|-4-------------------2------------|
G|----------------------------------| 3x


# http://ukulily-filly.blogspot.com/2012/05/free-ukulele-tabs-with-lyrics.html

 

Tab comments (0)
No comment yet :(
Need help, a tip to share, or simply want to talk about this song? Start the discussion!

You must be logged in to join the discussion
or Register

 

About this song

No information about this song.