Everywhere Uke tab by Jason Mraz

6 Chords used in the song: F, G, Am, C, Dm, D

Add tab to your SongBook
Tablature / ChordsFont size: A- A A+

Don't know how to read a tab or a chord ? Check out these uke lessons:

Detailed guide to strumming and picking
How to read uke tabs
Reading chord diagrams

A|---3---3---3---3---3---3---3---3----3---3---3---3---3---3---3---3-|
E|------------------------------------------------------------------|
C|------------------------------------------------------------------|
G|-2---2---2---2---2---2---2---2----4---4---4---4---4---4---4---4---|

A|---3---3---3---3---3---3---3---3----3---3---3---3---3---3---3---3-|
E|------------------------------------------------------------------|
C|------------------------------------------------------------------|
G|-2---2---2---2---2---2---2---2----4---4---4---4---4---4---4---4---|

# If I wasn't a ghost I couldn't walk into you
A|----------------3---------------0---------2-|
E|--------------0---------------0---------3---|
C|------------0---------------0---------2-----|
G|--------------------------------------------|

# If I wasn't the snow how could I fall for you?
A|------------------3---------------0--------2-|
E|----------------0---------------0--------3---|
C|--------------0---------------0--------2-----|
G|---------------------------------------------|

# If I wasn't a songbird how could I call to you?
A|-----------------3------0-------------------2-|
E|---------------0------0-------------------3---|
C|-------------0------0-------------------2-----|
G|----------------------------------------------|

# If I wasn't a fly on the wall I wouldn't know all about you
A|---------------3---------------------------0--------------2-|
E|-------------0---------------------------0--------------3---|
C|-----------0---------------------------0--------------2-----|
G|------------------------------------------------------------|

F F G G
I'm everything and everywhere
Am Am C C
Can you see me in your own reflection?
F F G G
I'm deep within the molecules of the air that you breathe
Dm Dm
And all the subatomic supersonic spaces in-between

F F G G
I'm everywhere
Am Am C C
I'm reaching out in every direction
F F G G D D
I believe I'm in the water too 'cause you act just like you need me
F F Am Am G G
I'm everywhere

C C Am Am G G
If I wasn't the fire how could you store me up inside?
C C Am Am G G
If I wasn't a party how could you be the life of me?
C C Am Am G G
If I wasn't a camera how could you be so photogenic? Yeah I said it
C C
If I wasn't the hands on the clock how could you
Am Am G G
Know that the time was right tonight?

F F G G
I'm everything and everywhere
Am Am C C
Can you see me in your own reflection?
F F G G
I'm deep within the molecules of the air that you breathe
Dm Dm
And all the subatomic supersonic spaces in-between

F F G G
I'm everywhere
Am Am C C
I'm reaching out in every direction
F F G G D D
I believe I'm in the water too 'cause you act just like you need me

F F G G Am Am
I got an eye like a spy on a satellite checking you out
C C
I'm like a fly with my infinite eyes
F F G G
I can see with all my senses and I'm coming to get you
Dm Dm
I'm invisible, expendable and omnipresent

F F G G
I'm everywhere
Am Am C C
Can you see me in your own reflection?
F F G G
I'm deep within the molecules of the air that you breathe
Dm Dm
And all the subatomic supersonic spaces in-between

F F G G
I'm everywhere
Am Am C C
I'm reaching out in every direction
F F G G D D
I believe I'm in the water too 'cause you act just like you need me

F F G G Am Am C C
I'm everywhere
F F G G Am Am C C
I'm everywhere
F F G G Am Am C C
I'm everywhere
F F G G Dm Dm
I'm everywhere


# http://ukulily-filly.blogspot.com/2012/05/free-ukulele-tabs-with-lyrics.html

 

Tab comments (0)
No comment yet :(
Need help, a tip to share, or simply want to talk about this song? Start the discussion!

You must be logged in to join the discussion
or Register

 

About this song

No information about this song.