Long Drive Uke tab by Jason Mraz

5 Chords used in the song: G, Em, C, D, Am

Add tab to your SongBook
Tablature / ChordsFont size: A- A A+

Don't know how to read a tab or a chord ? Check out these uke lessons:

Detailed guide to strumming and picking
How to read uke tabs
Reading chord diagrams

A|-------h2p0-----------0---------h2p0-----------0-|
E|-------------------------------------------------|
C|-------------------------------------------------|
G|-0--0--------0--0--0------0--0--------0--0--0----|

A|-------h2p0-----------0---------h2p0-----------0-|
E|-------------------------------------------------|
C|-------------------------------------------------|
G|-0--0--------0--0--0------0--0--------0--0--0----|

G G
Long drive, long night, the best night of my life
G G
With you riding your hand on my hand
Em Em C C
The thought of arriving kind of feels like dying

G G
I don't want to go home and be alone
G G
Could we, stay out? Could you

Em Em
Drive a little slower, don't matter where we're going
C C G G
As long as I'm with you, we can take the long way

G G
Chevy Nova, front seat, sofa
G G
Getting closer to you

Em Em
Drive a little slower, don't matter where we're going
C C G G
As long as I'm with you, we can take the long way
Em Em
Drive a little slower, not ready to go home
C C
I'd rather stay with you

G G D D
We can take the long way out
Em Em C C
To the country out of town, let's get lost; I don't wanna be found
G G D D
Let's get away, now
Em Em
And be careful not to crash
C C
There's no defrost and we're steaming the glass

Am Am
You and the road have a generous shoulder
D D
We can pull over and say we took the long way
Em Em C C D D
Ahhhhhh Ahhhhhh Ahhhhhh

Em Em
Headlights (headlights), strobe lights (strobe lights)
C C
I can see you (see you), not quite (not quite)
D D
I can feel you (feel you) inside (inside)
G G
The timing (timing) is just right (just right)
C C
For the moment (moment) I don't want (don't want)
D D
To go home (go home)

G G D D
Take the long way out
Em Em C C
Whoa Whoa Whoa
G G D D
Take the long way out
Em Em C C
Whoa Whoa Whoahhhoh

Em Em
Drive a little slower
C C
Don't matter where we're going, going now Whoa
Em Em
Drive a little slower
C C
Don't matter where we're going, going now Whoahhhoh

Em Em
Drive a little slower, not ready to go home
C C
I'd rather stay with you
# We can take the long way

A|----2-------------2------5--2-|
E|------------------------------|
C|------------------------------|
G|-2------2--0---2------0-------|

A|----2-------------2------5--2-|
E|------------------------------|
C|------------------------------|
G|-2------2--0---2------0-------|

G G
Long drive, long night, the best night of my life


# http://ukulily-filly.blogspot.com/2012/05/free-ukulele-tabs-with-lyrics.html

 

Tab comments (0)
No comment yet :(
Need help, a tip to share, or simply want to talk about this song? Start the discussion!

You must be logged in to join the discussion
or Register

 

About this song

No information about this song.