3 Things Uke tab by Jason Mraz

4 Chords used in the song: G, C, D, Em

Add tab to your SongBook
Tablature / ChordsFont size: A- A A+

Don't know how to read a tab or a chord ? Check out these uke lessons:

Detailed guide to strumming and picking
How to read uke tabs
Reading chord diagrams

G G              C C          D D           G G             
There are three things I do when my life falls apart
G G C C D D G G
Number One, I cry my eyes out and dry up my heart
G G C C D D Em Em
Not until I do this will my new life start
G G C C D D G G
So that's the first thing that I do when my life falls apart

A|----0--2--5--3----3--2--0--0--------------0--2-----3----3--2--0--0--------|
E|--------------------------------------------------------------------------|
C|--------------------------------------------------------------------------|
G|-0----------------------------0--0-----0--------0--------------------0--0-|

G G C C D D G G
Well, the second thing I do is I close both of my eyes
G G C C D D G G
And say my Thank Yous to each and every moment of my life
G G C C D D Em Em
I go where I know the love is and let it fill me up inside
G G C C D D G G
Gathering the strength from sorrow, I'm glad to be alive

A|----0--2--5--3----3--2--0--0-------|
E|-----------------------------------|
C|-----------------------------------|
G|-0----------------------------0--0-|

# And things are looking up
A|----------------------3--5--7-|
E|------------------------------|
C|------------------------------|
G|------------------------------|

C C G G
I know above the clouds, the sun is shining, mmmm
# Things are looking up
A|-----------------3--5--7-|
E|-------------------------|
C|-------------------------|
G|-------------------------|

C C Em Em D D
Love is still the answer I'm relying on

G G
Three little things
C C D D Em Em
Oh, oh, oh-oh-oh, oh, oh, oh-oh-oh
G G C C D D
Oh, oh, oh-oh-oh, oh, oh, oh
G G
Things are looking up
G G C C D D Em Em
Oh, oh, oh-oh-oh, oh, oh, oh-oh-oh
G G C C D D G G
Oh, oh, oh-oh-oh, oh, oh, oh

G G C C D D G G
Well, the third thing that I do now when my world caves in
G G
Is I pause, I take a breath and bow, and I let the chapter end
G G C C D D Em Em
I design my future bright not by where my life has been
G G C C D D
And I try, try, try, try, try again
G G C C D D G G
Yes I try, try, try, try, try again

# Things are looking up
A|------------------3--5--7-|
E|--------------------------|
C|--------------------------|
G|--------------------------|

C C G G
I know beyond the dark, the sun is rising, mmmm
# Things are looking up
A|------------------3--5--7-|
E|--------------------------|
C|--------------------------|
G|--------------------------|

C C G G D D
I know above the clouds, the sun is shining, mmmm
# Things are looking up
A|------------------3--5--7-|
E|--------------------------|
C|--------------------------|
G|--------------------------|

C C Em Em D D
Ooo Love is still the answer I'm relying on

G G
Three little things
C C D D Em Em
Oh, oh, oh-oh-oh, oh, oh, oh-oh-oh
G G C C D D
Oh, oh, oh-oh-oh, oh, oh, oh
G G
Three little things
G G C C D D Em Em
Oh, oh, oh-oh-oh, oh, oh, oh-oh-oh
G G C C D D G G
Oh, oh, oh-oh-oh, oh, oh, oh


# http://ukulily-filly.blogspot.com/2012/05/free-ukulele-tabs-with-lyrics.html

 

Tab comments (0)
No comment yet :(
Need help, a tip to share, or simply want to talk about this song? Start the discussion!

You must be logged in to join the discussion
or Register

 

About this song

No information about this song.