We Can Still Be Friends (dgbe) Uke tab by Jack Johnson

Ukulele Tab without chords.

Rate song!
PrintAdd tab to your SongBook

Tablature / Chords (

Font size: A- A A+

Artist: 
Album:  unknown
Key: unknownTablature (no chords)
Intro
e|--------2--|
B|----3------|
G|------2----| x8
D|--0--------|

Versr
e|--------2-------2-------2-------2-------3-------0-------2-------2--|
B|----3-------3-------3-------3-------0-------0-------3-------3------|
G|------2-------2-------2-------2-------0-------0-------2-------2----|
D|--0-------0-------0-------0-----------------------0-------0--------|

Uke tab by , 02 Aug 2010

Tab comments (0)

No comment yet :(
Need help, a tip to share, or simply want to talk about this song? Start the discussion!

Something to say?
Share your strumming patterns, chords or tips to play this tab! ;)

Top Tabs & Chords by Jack Johnson, don't miss these songs!

About this song: We Can Still Be Friends (dgbe)

No information about this song.

Did you cover We Can Still Be Friends (dgbe) on your Ukulele? Share your work!
Submit a cover