Upside Down (dgbe) Uke tab by Jack Johnson

2 Chords used in the song: E, F#m

8/10
PrintAdd tab to your SongBook

Tablature / Chords (

Font size: A- A A+

Artist: 
Album:  unknown
Difficulty: 
6
(Intermediate)
Key: E, A, F#m, C#mChords and Tablature
e------------------------------------------------|
H------------------------------------------------|
G---------4---------4---4h6----------------------|
D----4/6-------4/6------------4---4h6-4h6-4---2--|

e------------------------------------------------|
H------------------------------------------------|
G---------4---------4---4h6----------------------|
D----4/6-------4/6------------4---4h6-4h6-4---2--|

# Chords E E, F#m F#m

Uke tab by , 02 Aug 2010

Tab comments (2)

Something to say?
Share your strumming patterns, chords or tips to play this tab! ;)
Filter by:
story92 avatar
flag for US(ISO2) (O'Fallon)
not hearin it
12 Apr 2011
Comment
mynameishenry avatar
the "H" string, eh?
20 Mar 2011
Question

Top Tabs & Chords by Jack Johnson, don't miss these songs!

About this song: Upside Down (dgbe)

No information about this song.

Did you cover Upside Down (dgbe) on your Ukulele? Share your work!
Submit a cover