How We Love Uke tab by Ingrid Michaelson

Ukulele Tab without chords.

Add tab to your SongBook
Tablature / ChordsFont size: A- A A+

Don't know how to read a tab or a chord ? Check out these uke lessons:

Detailed guide to strumming and picking
How to read uke tabs
Reading chord diagrams

Intro:
A|--2-----2h4------2------2h4------2------2h4-----2-------2----|
E|0-----0--------0------0--------0------0-------0------0----0--|
D|-------------------------------------------------------------|
G|-------------------------------------------------------------|
Verse:
A|--2-----2h4------2------2h4------2------2h4-----2-------2----|
E|0-----0--------0------0--------0------0-------0------0----0--|
D|-------------------------------------------------------------|
G|-------------------------------------------------------------|

A|--6-----6--------7------7--------2------2h4-----2-------2----|
E|4-----4--------5------5--------0------0-------0------0----0--|
D|-------------------------------------------------------------|
G|-------------------------------------------------------------|
Chorus:
A|--7------7-----2-9----2-9------4-11----4-11-------7-------7----|
E|5-----5-----------------------------------------5------5-------|
C|---------------------------------------------------------------|
G|---------------------------------------------------------------|

A|2-9---2--9-----4-11------7--------2------2h4-----2-------2----|
E|-----------------------5--------0------0-------0------0----0--|
C|--------------------------------------------------------------|
G|--------------------------------------------------------------|
Bridge:
A|4-11---4--11-------7------7--------2------2-------6-------6----|
E|-----------------5------5--------0------0---0---4------4-------|
C|---------------------------------------------------------------|
G|---------------------------------------------------------------|

A|4-11---4--11--------------7------2-9----2-9------2-9---2--9----|
E|-----------------5------5--------------------------------------|
C|---------------------------------------------------------------|
G|---------------------------------------------------------------|

 

Tab comments (2)
You must be logged in to join the discussion
or Register

 

Benkinney avatar
awesome tab!
12 Oct 2015
mileskee avatar
Very good for a higher version. The original is a bit lower but to adjust it to fit the ukulele you did a great job!
02 Aug 2012
About this song

No information about this song.