World Is Mine Uke tab by Hatsune Miku

0 Chords used in the song:

6/10
PrintAdd tab to your SongBook

View these chords for the Baritone

Transpose chords:
Chord diagrams:
Pin chords to top while scrolling

Tablature / Chords (Full Song)

Font size: A- A A+

Artist: 
Album:  unknown
Key: unknownChords
# Intro:
A: ---3-----------------------------------3--------3---------
E: ------1--1--------1--1--3--4--3--1-----------1-----1--1---
C: 5-----------3--3--------------------3-----3--------------3
G: ----------------------------------------------------------

A: -----------------------3--6--------
E: -----1--1--1--1--4--4-----------1--
C: --3--------------------------3-----
G: -----------------------------------

A: ------------------------1-----------------------1---------
E: 1--1--1--4--1--1--1--4--1--1--1--4--1--1--1--4--1--1--1--1
C: 0--0--0--3--0--0--0--3-----0--0--3--0--0--0--3-----0--0--0
G: ----------------------------------------------------------

A: --------------1--0-----1--
E: --4--1--1--1--------4-----
C: --3--0--0--0--3--2--1--3--
G: --------------------------

# Verse:

A: ---------------------------------------------------2--1---
E: ------1--1--------------------------1--------1--4--------4
C: 0--3--------3--3--0--3--0--3--0--3-----3--3---------------
G: ----------------------------------------------------------

A: --------------------------------------------2--1---------
E: --4--1-----------1--4-----------1-----4--1--------4--1---
C: --------3--3--3--------3--0--3-----3--------------------0
G: ---------------------------------------------------------

A: -----------------------------------1---------------------
E: -----1-----------------------------------------------1--1
C: --3-----0--3--3--3--0--3--0--3--0-----3--0--3--0--3------
G: ---------------------------------------------------------

A: -----2--1-----------
E: --1--------4--1-----
C: -----------------3--
G: --------------------

# Pre-Chorus:

A: ------------------------------------------------------1---
E: 4--1--1-----1--1--4--1--------------1--1-----1-----------1
C: ---------3--------------3--3--0--3--------3-----3--0------
G: ----------------------------------------------------------

A: -----------------2--1------------------------------------
E: -----1--4--4--1--------4--1------------------------------
C: --3--------------------------3--0--3--3--3--3--3--3--3--3
G: ---------------------------------------------------------

A: -----
E: --1--
C: -----
G: -----

# Chorus:

A: ---3-----------------------------------3--------3---------
E: ------1--1--------1--1--3--4--3--1-----------1-----1--1---
C: 5-----------3--3--------------------3-----3--------------3
G: ----------------------------------------------------------

A: --------------------------3--3--3--------3---------------
E: -----1--1--1--1--4--4--4--------------1-----1--1--------1
C: --3--------------------------------3--------------3--3---
G: ---------------------------------------------------------

A: --------------------3--------3---------------------------
E: --1--3--4--3--1-----------1-----1--1--------1--1--1--4--4
C: -----------------3-----3--------------3--3---------------
G: ---------------------------------------------------------

A: -----3--3--3--6--------------------
E: --4-----------------------------1--
C: -----------------3--3--3--0--3-----
G: -----------------------------------

# Solo:

A: ------------------3--6--8--8--11----------------11-8--11---
E: ------1--4--1--4-------------------------------------------
C: 0--3-----------------------------10-10-10-10-10----------11
G: -----------------------------------------------------------

A: -------------------
E: -------6--4--1--4--
C: -10-8--------------
G: -------------------

# Bridge:

A: ----------------------------------------------------------
E: ----------------------------------------------------------
C: 0--0--2--0--0--2--0--0--2--3--2--0--0--2--0--0--2--0--0--2
G: ----------------------------------------------------------

A: -----2--1------------------------------------------------
E: -----------4---------------------------------------------
C: --3-----------0--2--0--2--0--0--2--3--2--0--0--2--0--0--0
G: ---------------------------------------------------------

A: --------------------------------------------------------1
E: --------------------1--1--3--1--3--1--1--1--3--4--3--1---
C: --2--0--0--2--3--2---------------------------------------
G: ---------------------------------------------------------

A: --1------------------------------------------------------
E: -----1-----1--4--1--4-----1--1--1--1-----------1--1--1--1
C: --------3--------------3--------------3--3--3------------
G: ---------------------------------------------------------

# Outro:

A: ---------1-----1--2--1--------------------1--1-----------1
E: ---1--4-----4-----------4--1-----1-----1-----------1--4---
C: 3-----------------------------3-----2-----------2---------
G: ----------------------------------------------------------

A: --1--------------------1-----1-----1-----1-----------0--11
E: -----4--1--4--1-----------4-----------1-----1--4--1--1----
C: -----------------3--0-----------0--------------------3----
G: ----------------------------------------------------------

Uke tab by , 13 May 2015

Tab comments (3)

Something to say?
Share your strumming patterns, chords or tips to play this tab! ;)
Filter by:
cameliabrower860 avatar
This conversation is captivating, but the unspoken yearnings are even more thrilling. Can we explore them with trust and a touch that speaks volumes about the desires simmering beneath the surface? f1nd me on cameliabrower_mooo_com change _ to dot
14 Jul 2024
Comment
exsmiley avatar
flag for US(ISO2) (Tujunga)
you can find those all over the internet
06 Jul 2018
Comment
thelimpet avatar
flag for GB(ISO2) (sydney)
someone please do just the chords
12 Jan 2018
Comment

Top Tabs & Chords by Hatsune Miku, don't miss these songs!

About this song: World Is Mine

No information about this song.

Did you cover World Is Mine on your Ukulele? Share your work!
Submit a cover