Wake Me Up When September Ends (trasposed) Uke tab by Green Day

0 Chords used in the song:

Rate song!
PrintAdd tab to your SongBook

Tablature / Chords (

Font size: A- A A+

Artist: 
Album:  unknown
Key: unknownChords and Tablature
{A| |----5-----5-----|----5-----5-----|----5-----5-----|----5-----5-----|
{e| |3-----3---------|3-----3---------|3-----3---------|3-----3---------|
{D| |----------------|----------------|----------------|----------------|
{G| |--0-----0-------|--0-----0-------|--0-----0-------|--0-----0-------|

{A| |----5-----5-----|----5-----5-----|----5-----5-----|----5-----5-----|
{e| |3-----3---------|2-----2---------|0-----0---------|----------------|
{D| |----------------|----------------|----------------|2-----2---------|
{G| |--0-----0-------|--0-----0-------|--0-----0-------|--0-----0-------|

{A| |----7-----7-----|----6-----6-----|----5-----5-----|----5-----5-----|
{e| |--3-------3-----|--------3-------|3-------3-------|3-------3-------|
{D| |0-------0-------|0-------------2-|--2-------2-----|--2-------2-----|
{G| |----5-5---5---5-|--5---5---5---0-|----0-0---0---0-|----0-0---0---0-|

A| |----2-----2-----|2---5---2-5-----|----3-3---3-----|----5-----0-5-2-|
e| |--0-------0-----|--2---2-------2-|----0-----0-----|3---3-----------|
D| |4-------4-----2-|----------------|0-------0-----2-|--2-----6-------|
G| |----0-0---0-----|----4-----4-----|--0-------0---0-|----0-0-----0---|

A| |----2-----2-----|2---5---2-5-----|----3-3---3-----|----5-5---5-----|
e| |--0-------0-----|--2---2-------2-|----0-----0-----|----2-----2-----|
D| |4-------4-----2-|----------------|0-------0-------|2-------2-------|
G| |----0-0---0-----|----4-----4-----|--0-------0---0-|--2---2---2---0-|

{A| |----------------|----------------|5-5-5-5-5-5-5-5-|5-5-5-5-5-5-5-5-|
{e| |3-3-3-3-3-3-3-3-|3-3-3-3-3-3-3-3-|3-3-3-3-3-3-3-3-|3-3-3-3-3-3-3-3-|
{D| |0-0-0-0-0-0-0-0-|0-0-0-0-0-0-0-0-|7-7-7-7-7-7-7-7-|7-7-7-7-7-7-7-7-|
{G| |5-5-5-5-5-5-5-5-|5-5-5-5-5-5-5-5-|----------------|----------------|

A| |----------------|----------------|5-5-5-5-5-5-5-5-|5-5-5-5-5-5-5-5-|
e| |3-3-3-3-3-3-3-3-|3-3-3-3-3-3-3-3-|3-3-3-3-3-3-3-3-|3-3-3-3-3-3-3-3-|
D| |0-0-0-0-0-0-0-0-|0-0-0-0-0-0-0-0-|7-7-7-7-7-7-7-7-|7-7-7-7-6-6-6-6-|
G| |5-5-5-5-5-5-5-5-|5-5-5-5-5-5-5-5-|----------------|----------------|

A| |2-2-2-2-2-2-2-2-|2-2-2-2-2-2-2-0-|--------------0-|5-5-5-5-5-5-5-5-|
e| |0-0-0-0-0-0-0-0-|2-2-2-2-2-2-2---|3-3-3-3-3-3-3---|3-3-3-3-3-3-3---|
D| |4-4-4-4-4-4-4-4-|--------------2-|0-0-0-0-0-0-0-2-|7-7-7-7-6-6-6-4-|
G| |----------------|4-4-4-4-4-4-4-0-|5-5-5-5-5-5-5-0-|----------------|

A| |2-2-2-2-2-2-2-2-|2-2-2-2-2-2-2-0-|----------------|----------------|
e| |0-0-0-0-0-0-0-0-|2-2-2-2-2-2-2---|3-3-3-3-3-3-3-3-|5-5-5-5-5-5-5-5-|
D| |4-4-4-4-4-4-4-4-|--------------2-|0-0-0-0-0-0-0-0-|2-2-2-2-2-2-2-2-|
G| |----------------|4-4-4-4-4-4-4-0-|5-5-5-5-5-5-5-5-|7-7-7-7-7-7-7-7-|

A| |----5-----5-----|----5-----5-----|----5-----5-----|----5-----5-----|
e| |3-----3---------|2-----2-----3---|0-----0---------|----------------|
D| |----------------|----------------|----------------|2-----2---------|
G| |--0-----0-------|--0-----0-------|--0-----0-------|--0-----0-------|

A| |----------------|----------------|5-5-5-5-5-5-5-5-|5-5-5-5-5-5-5-5-|
e| |3-3-3-3-3-3-3-3-|3-3-3-3-3-3-3-3-|3-3-3-3-3-3-3-3-|3-3-3-3-3-3-3-3-|
D| |0-0-0-0-0-0-0-0-|0-0-0-0-0-0-0-0-|7-7-7-7-7-7-7-7-|7-7-7-7-6-6-6-6-|
G| |5-5-5-5-5-5-5-5-|5-5-5-5-5-5-5-5-|----------------|----------------|
S
{A| |----------------|----------------|----------------|----------------|
{e| |3-3---3-3---3---|----------------|3-3---3-3---3---|----------------|
{D| |----------------|6-6---6-6---6---|----------------|7-7-7-7-6-6-6-6-|
{G|-|----4-----4---4-|----4-----4---4-|----5-----5---5-|7-7-7-7-7-7-7-7-|

{A| |----------------|----------------|----------------|----------------|
{e| |3-3---3-3---3---|----------------|3-3---3-3---3---|----------------|
{D| |----------------|6-6---6-6---6---|----------------|7-7-7-7-7-7-7-7-|
{G| |----4-----4---4-|----4-----4---4-|----5-----5---5-|7-7-7-7-7-7-7-7-|

{A| |2-2-2-2-2-2-2-2-|2-2-2-2-2-2-2-0-|--------------0-|5-5-5-5-5-5-5-5-|
{e| |0-0-0-0-0-0-0-0-|2-2-2-2-2-2-2---|3-3-3-3-3-3-3---|3-3-3-3-3-3-3-3-|
{D| |4-4-4-4-4-4-4-4-|--------------2-|0-0-0-0-0-0-0-2-|7-7-7-7-6-6-6-6-|
{G| |----------------|4-4-4-4-4-4-4-0-|5-5-5-5-5-5-5-0-|----------------|

{A| |2-2-2-2-2-2-2-2-|2-2-2-2-2-2-2-0-|----------------|5-5-5-5-5-5-5-5-|
{e| |0-0-0-0-0-0-0-0-|2-2-2-2-2-2-2---|3-3-3-3-3-3-3-3-|----------------|
{D| |4-4-4-4-4-4-4-4-|--------------2-|0-0-0-0-0-0-0-0-|2-2-2-2-2-2-2-2-|
{G| |----------------|4-4-4-4-4-4-4-0-|5-5-5-5-5-5-5-5-|2-2-2-2-2-2-2-2-|

{A| |5-5-5-5-5-5-5-5-|5-5-5-5-5-5-5-5-|5-5-5-5-5-5-5-5-|
{e| |----------------|----------------|----------------|
{D| |2-2-2-2-2-2-2-2-|2-2-2-2-2-2-2-2-|2-2-2-2-2-2-2-2-|
{G| |2-2-2-2-2-2-2-2-|2-2-2-2-2-2-2-2-|2-2-2-2-2-2-2-2-|

{A| |----5-----5-----|----5-----5-----|----5-----5-----|----5-----5-----|
{e| |3-----3---------|3-----3---------|3-----3---------|3-----3---------|
{D| |----------------|----------------|----------------|----------------|
{G| |--0-----0-------|--0-----0-------|--0-----0-------|--0-----0-------|

{A| |----5-----5-----|----5-----5-----|----5-----5-----|----5-----5-----|
{e| |3-----3---------|2-----2---------|0-----0---------|----------------|
{D| |----------------|----------------|----------------|2-----2---------|
{G| |--0-----0-------|--0-----0-------|--0-----0-------|--0-----0-------|

A| |----------------|----------------|5-5-5-5-5-5-5-5-|5---------------|
e| |3-3-3-3-3-3-3-3-|3-3-3-3-3-3-3-3-|3-3-3-3-3-3-3-3-|3---------------|
D| |0-0-0-0-0-0-0-0-|0-0-0-0-0-0-0-0-|7-7-7-7-7-7-7-7-|7---------------|
G| |5-5-5-5-5-5-5-5-|5-5-5-5-5-5-5-5-|----------------|----------------|

Uke tab by , 22 Jan 2012

Tab comments (0)

No comment yet :(
Need help, a tip to share, or simply want to talk about this song? Start the discussion!

Something to say?
Share your strumming patterns, chords or tips to play this tab! ;)

Top Tabs & Chords by Green Day, don't miss these songs!

About this song: Wake Me Up When September Ends (trasposed)

No information about this song.

Did you cover Wake Me Up When September Ends (trasposed) on your Ukulele? Share your work!
Submit a cover