Wake Me Up When September Ends Solo Uke tab by Green Day

Ukulele Tab without chords.

6/10
PrintAdd tab to your SongBook

Tablature / Chords (Full Song)

Font size: A- A A+

Artist: 
Album:  unknown
Key: unknownTablature (no chords)
A|----2-----2---2-----2-----2---2-----3-----3---3
E|3-3---3-3---3---2-2---2-2---2---3-3---3-3---3--
C|-----------------------------------------------
G|-----------------------------------------------

A|5-5-5-5--------
E|--------2-2-2-2
C|---------------
G|---------------

A|----2-----2---2-----2-----2---2-----3-----3---3
E|3-3---3-3---3---2-2---2-2---2---3-3---3-3---3--
C|-----------------------------------------------
G|-----------------------------------------------

A|5-5-5-5-5-5-5-5--------------------------------------------------
E|----------------2-2-2-2-2-2-2-2-3-3-3-3-3-3-3-3-2-2-2-2-2-2-2-2-3
C|-----------------------------------------------------------------
G|-----------------------------------------------------------------

Uke tab by , 10 Dec 2011

Tab comments (0)

No comment yet :(
Need help, a tip to share, or simply want to talk about this song? Start the discussion!

Something to say?
Share your strumming patterns, chords or tips to play this tab! ;)

Top Tabs & Chords by Green Day, don't miss these songs!

About this song: Wake Me Up When September Ends Solo

No information about this song.

Did you cover Wake Me Up When September Ends Solo on your Ukulele? Share your work!
Submit a cover