Kumbaya Uke tab by Folk Songs

1 Chords used in the song: D

6.8/10
PrintAdd tab to your SongBook

Tablature / Chords (Full Song)

Font size: A- A A+

Artist: 
Album:  unknown
Difficulty: 
4
(Intermediate)
Key: D, G, A, Gm, Em, Bm, Chords and Tablature
Kumbaya

Verse 1:
D D D D
A|-----0---0-0-2-2-0-|
E|---2---2---2-----2-|
C|-2---------2-----2-|
G|-----------2-----2-|
Kum bay ya, my Lord, kum bay ya;

D D
A|-----0---0-0-------|
E|---2---2---2---2-0-|
C|-2---------2-------|
G|-----------2-0-----|
Kum bay ya, my Lord, kum bay ya;

D D D D
A|-----0---0-0-2-2-0-|
E|---2---2---2-----2-|
C|-2---------2-----2-|
G|-----------2-----2-|
Kum bay ya, my Lord, kum bay ya;


A|-------------|
E|---2---0-0---|
C|-----2-----2-|
G|-0-----------|
O Lord, kum bay ya



Hey, thanks for playing my first tab submission.
-Stopher87

Uke tab by , 28 Feb 2010

Tab comments (0)

No comment yet :(
Need help, a tip to share, or simply want to talk about this song? Start the discussion!

Something to say?
Share your strumming patterns, chords or tips to play this tab! ;)

Top Tabs & Chords by Folk Songs, don't miss these songs!

About this song: Kumbaya

No information about this song.

Did you cover Kumbaya on your Ukulele? Share your work!
Submit a cover