La Vie En Rose Uke tab by Edith Piaf

Ukulele Tab without chords.

Add tab to your SongBook
Tablature / ChordsFont size: A- A A+

Don't know how to read a tab or a chord ? Check out these uke lessons:

Detailed guide to strumming and picking
How to read uke tabs
Reading chord diagrams

A|---3---|--3-2-0---3--2--|-0-------2--0--|---------2-0--2--5--|
E|---0---|--------0----0--|---3-0------0--|--3-0------------5--|
C|---0---|-------------0--|-------0----0--|------00---------5--|
G|---0---|-------------0--|------------0--|--------------------|


A|--3-2-0---3--2--|-0-------2--0--|---------33---023--|
E|--------0----0--|---3-0------0--|--3-0--------------|
C|-------------0--|-------0----0--|------00-----------|
G|-------------0--|------------0--|-------------------|


A|--55--3-55--3-55-3-0--|--023--55-3-55-3-5-5-5303-77--|
E|----------------------|------------------------------|
C|----------------------|------------------------------|
G|----------------------|------------------------------|

A|---3---|--3-2-0---3--2--|-0-------2--0--|---------2-0--2--3--|--7---3--|
E|---0---|--------0----0--|---3-0------0--|--3-0------------0--|------0--|
C|---0---|-------------0--|-------0----0--|------00---------0--|------0--|
G|---0---|-------------0--|------------0--|-----------------0--|------0--|

 

Tab comments (1)
You must be logged in to join the discussion
or Register

 

CandyWhales avatar
Just a recommendation for the beginning theme:
A|3-2-0-----3-2
E|0-----3-0---0
C|0-----------0
G|0-----------0
04 Feb 2018
About this song

No information about this song.