La Vie En Rose Uke tab by Edith Piaf

Ukulele Tab without chords.

Add tab to your SongBook
Tablature / ChordsFont size: A- A A+

Don't know how to read a tab or a chord ? Check out these uke lessons:

Detailed guide to strumming and picking
How to read uke tabs
Reading chord diagrams

A|--3-----2----0---------------3-----2----|
E|------------------3----0----------------|
C|----------------------------------------|
G|----------------------------------------|



A|--0-----------------------2--------0----|
E|--------3-----0-------------------------|
C|-------------------0--------------------|
G|----------------------------------------|



A|-----------------------2-----0----------|
E|--3----0---------------------------3----|
C|------------0---0-----------------------|
G|----------------------------------------|



A|--5----3----2---0----------3------2-----|
E|---------------------1------------------|
C|----------------------------------------|
G|----------------------------------------|



A|--0----------------------2-------0------|
E|------3-----0---------------------------|
C|------------------0---------------------|
G|----------------------------------------|



A|-----------------------2------0---------|
E|--3----0----------------------------3---|
C|------------0---0-----------------------|
G|----------------------------------------|



A|--3-----2----0---------------3-----2----|
E|------------------3----0----------------|
C|----------------------------------------|
G|----------------------------------------|



A|--0-----------------------2--------0----|
E|--------3-----0-------------------------|
C|-------------------0--------------------|
G|----------------------------------------|



A|-----------------------3---3-------3----|
E|--3----0--------------------------------|
C|------------0---0-----------------------|
G|----------------------------------------|



A|---5--5---3----5--5---3---5--5---3------|
E|--------------------------------------3-|
C|----------------------------------------|
G|----------------------------------------|



A|-5-5-3----5-5-3----5-5-3-----7-----5----|
E|----------------------------------------|
C|----------------------------------------|
G|----------------------------------------|


A|--3-----2----0---------------3-----2----|
E|------------------3----0----------------|
C|----------------------------------------|
G|----------------------------------------|


A|--0-----------------------2--------0----|
E|--------3-----0-------------------------|
C|-------------------0--------------------|
G|----------------------------------------|


C C

A|------------0--------2---------3--------|
E|----3-----------------------------------|
C|----------------------------------------|
G|----------------------------------------|


# At the very las note of the song you can play instead a C C chord, strumming all the strigs; that gives a beutiful ending.

 

Tab comments (6)
You must be logged in to join the discussion
or Register

 

kony_con_k avatar
flag for CL(ISO2) (Santiago)
Perfect
23 Dec 2019
mlamendez avatar
thank you!! love this!
14 Dec 2019
e_gllt avatar
❤️
01 Sep 2019
pmojado002 avatar
flag for PH(ISO2) (Pasig)
this is so good!
31 Aug 2019
ordoabchaos avatar
thank you !
26 Jul 2019
maria_martina avatar
i love it!
20 May 2019
About this song

No information about this song.