I See Fire Uke tab by Ed Sheeran

0 Chords used in the song:

8/10
PrintAdd tab to your SongBook

Tablature / Chords (Full Song)

Font size: A- A A+

Artist: 
Album: 
Year:  2014
Key: unknownChords and Tablature
this is the riff that comes after the intro :)

h= hammer on
p= pull off (opposite of hammer)
x= mute strings

A|---0-----------------------------0-----x--|
E|---------------------------------0h1---x--|
C|---2h4p2p0-------------0---------------x--|
G|-------------------0h2-----------------x--|

A|----------------x---0---x--|
E|------------3---x---0---x--|
C|---0h2----------x---0---x--|
G|---0------------x---2---x--|

⇢ Not happy with this tab? View 7 other version(s)

Uke tab by , 31 Dec 2016

Tab comments (0)

No comment yet :(
Need help, a tip to share, or simply want to talk about this song? Start the discussion!

Something to say?
Share your strumming patterns, chords or tips to play this tab! ;)

Top Tabs & Chords by Ed Sheeran, don't miss these songs!

About this song: I See Fire

No information about this song.

Did you cover I See Fire on your Ukulele? Share your work!
Submit a cover