Shipping Up To Boston Uke tab by Dropkick Murphys

Ukulele Tab without chords.

Add tab to your SongBook
Tablature / ChordsFont size: A- A A+
You must be logged in to access this page
or Register

 

Tab comments (4)
You must be logged in to join the discussion
or Register

 

Mkinkt avatar
Mkinkt flag for AU(ISO2) (Sydney)
I coincidently pasted the song... sorry.
10 Mar 2012
Mkinkt avatar
Mkinkt flag for AU(ISO2) (Sydney)
|--------------------2-0---0---------------------|
|----------2-3-2---------3---3-2--3-2------------|
|4-2-4-2-4-------4-2------------------2-4--------|
|------------------------------------------------|

|-----------------------------------2------------|
|----------2-3-2----------------2-3--------------|
|4-2-4-2-4-------4-2--4-2-4-2-4------------------|
|------------------------------------------------|
x3
|--------------------2-0---0---------------------|
|----------2-3-2---------3---3-2--3-2------------|
|4-2-4-2-4-------4-2------------------2-4--------|
|------------------------------------------------|

|2-0-2-0-2-4-5-4-2-0-2-0-2-0-2-4-5-9-------------|
|------------------------------------------------|
|------------------------------------------------|
|------------------------------------------------|

|2-0-2-0-2-4-5-4-2-0-9-7-5-7-5-4-5-4-0-2---------|
|------------------------------------------------|
|------------------------------------------------|
|------------------------------------------------|

Chorus: D - C - G
10 Mar 2012
paintblfrk avatar
paintblfrk flag for US(ISO2) (Portland)
its close, but a little hammer on cant replace a scale, keep workin on it man
04 Mar 2011
 avatar
flag for (ISO2)
Great tab...just a few notes that could be changed if you listen to the original song.
20 Jan 2011
About this song

No information about this song.