Gravity Falls Uke tab by Disney

6 Chords used in the song :

Add tab to your SongBook

View these chords for the Baritone

Transpose chords:
Tablature / ChordsFont size: A- A A+

Don't know how to read a tab or a chord ? Check out these uke lessons:

How to read uke tabs
Reading chord diagrams


Dm chordDm F chordF A7 chordA7
A|-8-5-0-5-8-5-0-5-8-3-0-3-8-3-0-3-7-4-0-4-7-4-0-4-7-4-0-4-7-4-0-4---------|
E|-------------------------------------------------------------------------|
C|-------------------------------------------------------------------------|
G|-------------------------------------------------------------------------|


Dm chordDm F chordF Dm chordDm A7 chordA7 Dm chordDm F chordF
A|-------------------------------------------------------------------------|
E|-----0-1---5--3-5-0-------0-1--0--3-5-3-1---1-1-1-5-5-3-1--5-5-5-3-5-3-1-|
C|-2--------------------2--------------------------------------------------|
G|-------------------------------------------------------------------------|


Dm chordDm A7 chordA7 A chordA Dm chordDm Bb chordBb Am chordAm A7 chordA7
A|-----------------------4-4-4-----------------1-1-1----3-----4------------|
E|-1-1-1-5-5-3-1--5-5-5---------1-1-1-5-5-3-1--------3-----5---------------|
C|-------------------------------------------------------------------------|
G|-------------------------------------------------------------------------|



Solo

A|-------3-------------5---------------|
E|---1-5-----0-3-----------------------|
C|-2-------1-----1-2-------------------|
G|-------------------------------------|

 

Tab comments (5)
You must be logged in to join the discussion
or Register

 

Fernaaaa avatar
Fernaaaa flag for CL(ISO2) (Santiago)
Hola quien sabe y me puede explicar como leer los acordes así x favor
17 May 2019
BlazerodL avatar
BlazerodL flag for US(ISO2) (SD)
Sorry I meant that on the second Tab, the second 0 shoud be on C string.
22 Aug 2018
BlazerodL avatar
BlazerodL flag for US(ISO2) (SD)
On the second Tab, the first 0 should be on C string
14 Jul 2018
ktmarie009 avatar
this is wrong
18 Jun 2018
ukulehman avatar
Here are the chords you play in each section of the song. Each measure has four beats (shown below with chord name + a dot for each beat).

INTRO x1

Dm . . . F . . . Bb . . . A7 . . .

VERSE x2

Dm . . . Dm . . . F . . . F . . .
Bb . . . Bb . . . C . . . A7 . . .

ENDING

Dm . . . F . . . Bb . . . C . . . A7 . . .

OUTRO

Dm --> A7 --> Dm
28 Jan 2018
About this song

No information about this song.