Married Life (up Song) Uke tab by Disney/ Pixar

Ukulele Tab without chords.

10/10
PrintAdd tab to your SongBook

Tablature / Chords (Simplified Song)

Font size: A- A A+

Artist: 
Album:  unknown
Difficulty: 
5
(Intermediate)
Key: unknownTablature (no chords)
-got tired of seeing this tab high up on the fretboard-
-In the future I want to try to do the full song but this is just the ending-



A|---2---------2------------------2-0---2-0---------------------------------|
E|-3---3-2---3---2-0---0-3-0----0-----0-----3-0---3-5-3-2-2-5-2-----2-------|
C|---------------------------2----------------------------------2-2---2-0---|
G|--------------------------------------------------------------------------|

A|---2--3--5--7--9--5--7--9--10--12--10--9--10--9-|
E|------------------------------------------------|
C|------------------------------------------------|
G|------------------------------------------------|

Uke tab by , 23 Jun 2022

Tab comments (0)

No comment yet :(
Need help, a tip to share, or simply want to talk about this song? Start the discussion!

Something to say?
Share your strumming patterns, chords or tips to play this tab! ;)

Top Tabs & Chords by Disney/ Pixar, don't miss these songs!

About this song: Married Life (up Song)

No information about this song.

Did you cover Married Life (up Song) on your Ukulele? Share your work!
Submit a cover