Portland Uke tab by Bowling Shoes

2 Chords used in the song :

Add tab to your SongBook

View these chords for the Baritone

Transpose chords:
Tablature / ChordsFont size: A- A A+

Don't know how to read a tab or a chord ? Check out these uke lessons:

Detailed guide to strumming and picking
How to read uke tabs
Reading chord diagrams


note between what's one long drive and the instrumental play three down strums where the strings don't really make any sound

A|2-2-2-2---------------------------------|
E|3-3-3-3---------------------------------|
C|2-2-2-2---------------------------------|
G|----------------------------------------|
she said to me

N.C.
she wants to go to portland

A|2-2-2-2---------------------------------|
E|3-3-3-3---------------------------------|
C|2-2-2-2---------------------------------|
G|----------------------------------------|
there's not a thing

N.C.
that's nearly as important

A|2-2-2-2---------------------------------|
E|3-3-3-3---------------------------------|
C|2-2-2-2---------------------------------|
G|----------------------------------------|
we can drive all night

N.C.
we'll get there in the morning

A|2-2-2-2---------------------------------|
E|3-3-3-3---------------------------------|
C|2-2-2-2---------------------------------|
G|----------------------------------------|
what's one long drive

G chordG
haven't you seen

G chordG
my bad habits lately

G chordG
it's not a pleasentry

G chordG
let's go soon and get there nice and early

G chordG
what's one long drive

AM chordAM G chordG AM chordAM G chordG

G chordG AM chordAM
haven't you seen

G chordG AM chordAM
my bad habits lately

G chordG AM chordAM
i've been naive

G chordG AM chordAM
and i've been feeling hazy maybe

G chordG AM chordAM
i've barely left my room in a week

G chordG AM chordAM
the thought of doing so scares me

G chordG AM chordAM
i wish it could be easy

G chordG AM chordAM
to fall asleep completely

G chordG AM chordAM
she said to me

G chordG AM chordAM
as she sparks a pipe in the sunlight

G chordG AM chordAM
as she reclines

G chordG AM chordAM
she tells me i'll be alright

G chordG AM chordAM G chordG AM chordAM G chordG

 

Tab comments (0)
No comment yet :(
Need help, a tip to share, or simply want to talk about this song? Start the discussion!

You must be logged in to join the discussion
or Register

 

About this song

No information about this song.