Changing Of The Guards Uke tab by Bob Dylan

4 Chords used in the song: Fm,Ab,Eb,Db

Add tab to your SongBook
Tablature / ChordsFont size: A- A A+

Don't know how to read a tab or a chord ? Check out these uke lessons:

Detailed guide to strumming and picking
How to read uke tabs
Reading chord diagrams

Fm Fm
Sixteen years,
Ab Ab Eb Eb Fm Fm
Sixteen banners united over the fields
Db Db Eb Eb
While the good shepherd grieves
Fm Fm Ab Ab Eb Eb
Desperate men, desperate women divided,
Fm Fm Db Db Eb Eb Ab Ab
Spreading their wings 'neath the falling leaves.

Fm Fm
Fortune calls.
Ab Ab Eb Eb Fm Fm
I stepped forth from the shadows, to the marketplace,
Db Db Eb Eb Fm Fm
Merchants and thieves, hungry for power, my last deal gone down.
Ab Ab Eb Eb Fm Fm
She's smelling sweet like the meadows where she was born,
Db Db Eb Eb Ab Ab
On midsummer's eve, near the tower.

# Interlude:

A|-1-3-4-4~----1-1---------||-1-3-4-4~----1-1---------|
E|--------------------4-4--||--------------------4-4--|
C|-------------------------||-------------------------|
G|-------------------------||-------------------------|

A|-1-3-4-4~----1-1---------||-------3-----------------|
E|--------------------4-4--||-6p4-4-4~----------------|
C|-------------------------||-------5-----------------|
G|-------------------------||-------------------------|

Fm Fm
Peace will come
Ab Ab Eb Eb Fm Fm
With tranquility and splendor on the wheels of fire
Db Db Eb Eb Fm Fm
But will offer no reward when her false idols fall
Ab Ab Eb Eb Fm Fm
And cruel death surrenders with its pale ghost retreating
Db Db Eb Eb Ab Ab
Between the King and the Queen of Swords.
Fm Fm Ab Ab Eb Eb Fm Fm...

 

Tab comments (0)
No comment yet :(
Need help, a tip to share, or simply want to talk about this song? Start the discussion!

You must be logged in to join the discussion
or Register

 

About this song

No information about this song.