For The Damaged Coda (Riff) Uke tab by Blonde Redhead

Ukulele Tab without chords.

Add tab to your SongBook
Tablature / ChordsFont size: A- A A+

Don't know how to read a tab or a chord ? Check out these uke lessons:

Detailed guide to strumming and picking
How to read uke tabs
Reading chord diagrams

A|----------------------------------------|
E|------------------3--1------------------|
C|-0----------------------3---------------|
G|---5--3--1--0--1------------------------|


A|----------------------------------------|
E|----------------3--1--------------------|
C|----------------------3-----------------|
G|-5--3--1--0--1--------------------------|

 

Tab comments (1)
You must be logged in to join the discussion
or Register

 

oapfrenchie123 avatar
flag for US(ISO2) (Reno, NV)
this sounds 10000% like the song!
14 Jan 2021
About this song

No information about this song.