For The Damaged Coda (Riff) Uke tab by Blonde Redhead

Ukulele Tab without chords.

Add tab to your SongBook
Tablature / ChordsFont size: A- A A+

Don't know how to read a tab or a chord ? Check out these uke lessons:

Detailed guide to strumming and picking
How to read uke tabs
Reading chord diagrams

A|---------------------------------|
E|-----3-------3-------3-------3---|
C|-1-------1-------1-------1-------|
G|---3---3---3---3---3---3---3---3-|
H
A|-------------------------------2------|
E|-----1-------1-------1-------1----1---|
C|-0-------0-------0-------0---0--------|
G|---1---1---1---1---1---1---1----1---1-|

A|-2-------2-------2---------|
E|-----1-------4-------4---3-|
C|-------------------------0-|
G|---1---1---4---4---4---4-5-|

A|-------(-)-------(-)--------------------------------------------------|
E|-----3--1------1--1------1-3-1-3-------3-------3-------1---------1-3--|
C|-0------1--1------0--0-----2-----2-3-------3-------2-------2---2----r-|
G|---5----3----3----1----1-------------5---5---5---5---3---3---3--------|
H H H H
A|-6-6-6-6-6-6-5-3-5-3-|
E|-3-3-3-3-3-----------|
C|---------------------|
G|---------------------|
H H H H
A|-6-6-6-6-6-6-5-3-5-3-|
E|-3-3-3-3-3-----------|
C|---------------------|
G|---------------------|

 

Tab comments (1)
You must be logged in to join the discussion
or Register

 

Llanuke avatar
flag for SE(ISO2) (Stockholm)
Sounds great!
27 May 2018
About this song

No information about this song.