Achy Breaky Heart Uke tab by Billy Ray Cyrus

2 Chords used in the song: A, E

Add tab to your SongBook
Tablature / ChordsFont size: A- A A+

Don't know how to read a tab or a chord ? Check out these uke lessons:

Detailed guide to strumming and picking
How to read uke tabs
Reading chord diagrams

INTRO

A|-0-0------0-0---3--0-0---------2-3-3-3-3-3-3-3---|
E|-----2-0------2--------2-0-2-4-------------------|
C|-------------------------------------------------|
G|-------------------------------------------------|

# VERSE 1
A A
You can tell the world

You know there was no girl
E E
You can burn my clothes when I am gone

Or you can tell your friends

Just what a fool I've been
A A
And laugh and joke about me on the phone


# VERSE 2
A A
You can tell my arms

Go back into the farm
E E
You can tell my feet to hit the floor

Or you can tell my lips

To tell my fingertips
A A
They won't be reaching out for you no more


CHORUS
A A
But don't tell my heart

My achy breaky heart
E E
I just don't think it'd understand

And if you tell my heart

My achy breaky heart
A A
He might blow up and kill this man

Wooooooooo...

A|-0-0------0-0------0-0------7-7-4-2--7-7-4-2--7-7-4-2-|
E|-----2-0------2-0------2-0----------------------------|
C|------------------------------------------------------|
G|------------------------------------------------------|
A|--7-7-4-2--0-0-0-0----|
E|----------------------|
C|----------------------|
G|----------------------|


VERSE 3
A A
You can tell your maw

I moved to Arkansa(s)
E E
You can tell your dog that bit my leg

Or tell your brother Cliff

Who's fist can tell my lip
A A
He never really liked me anyway


VERSE 4
A A
Go tell your aunt Louise

Tell anything you please
E E
That sell already knows I'm not okay

Or you can tell my eye

Whatch out for my mind
A A
It might be walkin' out on me one day


CHORUS
A A
But don't tell my heart

My achy breaky heart
E E
I just don't think it'd understand

And if you tell my heart

My achy breaky heart
A A
He might blow up and kill this man

Woooooooooo...

A|-0-0------0-0------0-0------7-7-4-2--7-7-4-2--7-7-4-2-|
E|-----2-0------2-0------2-0----------------------------|
C|------------------------------------------------------|
G|------------------------------------------------------|
A|--7-7-4-2--0-0-0-0----|
E|----------------------|
C|----------------------|
G|----------------------|


CHORUS
A A
But don't tell my heart

My achy breaky heart
E E
I just don't think it'd understand

And if you tell my heart

My achy breaky heart
A A
He might blow up and kill this man


CHORUS: No chords played

But don't tell my heart

My achy breaky heart

I just don't think it'd understand

And if you tell my heart

My achy breaky heart

He might blow up and kill this man


A|-0-0------0-0------0-0------7-7-4-2--7-7-4-2--7-7-4-2-|
E|-----2-0------2-0------2-0----------------------------|
C|------------------------------------------------------|
G|------------------------------------------------------|
A|--7-7-4-2--0-0-0-0----|
E|----------------------| (repeat)
C|----------------------|
G|----------------------|

 

Tab comments (0)
No comment yet :(
Need help, a tip to share, or simply want to talk about this song? Start the discussion!

You must be logged in to join the discussion
or Register

 

About this song

No information about this song.