Eternal Flame Uke tab by Bangles

Ukulele Tab without chords.

Add tab to your SongBook
Tablature / ChordsFont size: A- A A+

Don't know how to read a tab or a chord ? Check out these uke lessons:

Detailed guide to strumming and picking
How to read uke tabs
Reading chord diagrams

A --------------7-------------10-10-10-10-7-7-7----------10-10-9-14-14-7-9-10-7-12\5
E 7-8-10--10-10---10-----7 10-------------------10-----7----------------------------
C -------------------7-9---------------------------7-9------------------------------
G ----------------------------------------------------------------------------------

A -------------------10-9-10---
E -10-10-10-10-10-10---------10
C -----------------------------
G -----------------------------

A --------------7-------------10-10-10-10-7-7-7----------10-10-9-14-14-7-9-10-7-12\5
E 7-8-10--10-10---10-----7 10-------------------10-----7----------------------------
C -------------------7-9---------------------------7-9------------------------------
G ----------------------------------------------------------------------------------

A -------15-14-12-14-12-10-15-14-12\10-10-12-12
E -10-10---------------------------------------
C ---------------------------------------------
G ---------------------------------------------

A 12-12-12-12--10-10-10-9-10-9-------7-8-12-10-------------7-8-7-----------
E------------------------------10-10-----------10-10-10-10-------10-10-8-10
C--------------------------------------------------------------------------
G--------------------------------------------------------------------------

A 7-9----7-9-12-10-10-12|
E ----10----------------|GUITAR SOLO
C-----------------------|
G-----------------------|

A 12-12-12-12--10-10-10-9-10-9-------7-8-12-10-------------7-8-7-----------
E------------------------------10-10-----------10-10-10-10-------10-10-8-10
C--------------------------------------------------------------------------
G--------------------------------------------------------------------------

A 7-9----7-9-12-10-10-12|
E ----10----------------|
C-----------------------|
G-----------------------|

A --------------7-------------10-10-10-10-7-7-7----------10-10-9-14-14-7-9-10-7-12\5
E 7-8-10--10-10---10-----7 10-------------------10-----7----------------------------
C -------------------7-9---------------------------7-9------------------------------
G ----------------------------------------------------------------------------------

 

Tab comments (0)
No comment yet :(
Need help, a tip to share, or simply want to talk about this song? Start the discussion!

You must be logged in to join the discussion
or Register

 

About this song

Released February 11, 1989"Eternal Flame" is a song by The Bangles, which became a hit single in 1989, peaking at number one in the charts in six countries; including: Australia, the United Kingdom, and the United States. It was written by popular songwriters Billy Steinberg and Tom Kelly and the Bangles' own Susanna Hoffs.It was a ballad, unlike the rest of the garage-band pop songs on their album Everything. Co-writer Billy Steinberg describes it as "The Beatles meet The Byrds". Read more on Last.fm.