Perfect Two Uke tab by Auburn

4 Chords used in the song: G, D, Em, C

7.8/10
PrintAdd tab to your SongBook

Tablature / Chords (Full Song)

Font size: A- A A+

Artist: 
Album:  unknown
Difficulty: 
3.25
(Beginner)
Key: G, EmChords and Tablature
TABS & CHORDS REPEATED THROUGHOUT SONG:

G G D D

A|----------------|----------------|
E|3---3---3---3---|2---2---2---2---|
C|2---2---2---2---|2---2---2---2---|
G|----------------|----------------|

Em Em C C

A|----------------|3---3---3---3---|
E|3---3---3---3---|3---3---3---3---|
C|4---4---4---4---|----------------|
G|----------------|----------------|

⇢ Not happy with this tab? View 6 other version(s)

Uke tab by , 07 Aug 2010

Tab comments (6)

Something to say?
Share your strumming patterns, chords or tips to play this tab! ;)
Filter by:
Katenga avatar
por que não tem a letra da música?
17 Jan 2019
Question
Moontea27 avatar
mobile flag for US(ISO2) (Mission)
perfect!!
06 Mar 2018
Comment
lucyinthesky avatar
AMAAAZING.
28 Jan 2012
Correction
Charmizzle avatar
flag for US(ISO2) (San Jose)
Thanks
28 Aug 2010
Comment
musicislife avatar
DDDD
15 Aug 2010
Comment
Charmizzle avatar
flag for US(ISO2) (San Jose)
What is the strum pattern?
14 Aug 2010
Question

About this song: Perfect Two

No information about this song.

Did you cover Perfect Two on your Ukulele? Share your work!
Submit a cover