The Roost Uke tab by Animal Crossing

1 Chords used in the song :

Add tab to your SongBookprint

View these chords for the Baritone

Transpose chords:
Tablature / ChordsFont size: A- A A+

Don't know how to read a tab or a chord ? Check out these uke lessons:

How to read uke tabs
Reading chord diagrams


A|----------------2-3-----------2-3----2-0-2-----|
E|-----0----3-----------0-3--------------------0-3|
C|0----------------------------------------|
G|----------------------------------------|



A|-------------------------------------3-2-0-2-3---|
E|-3-5-6-5-3-5------------0-3-8-10-----------------|
C|----------------2-2-4-5-----------------------------|
G|--------------------------------------------------|

 

Tab comments (0)
No comment yet :(
Need help, a tip to share, or simply want to talk about this song? Start the discussion!

You must be logged in to join the discussion
or Register

 

About this song

No information about this song.

0.3479 sec, 6 Q