Someone Like You (Intro) Uke tab by Adele

Ukulele Tab without chords.

Add tab to your SongBook
Tablature / ChordsFont size: A- A A+

Don't know how to read a tab or a chord ? Check out these uke lessons:

Detailed guide to strumming and picking
How to read uke tabs
Reading chord diagrams

A|-----1-------1-------1-------1---|
E|---3---3---3---3---3---3---3---3-|
C|-3-------3-------3-------3-------|
G|---------------------------------|

A|-----1-------1-------1-------1---|
E|---3---3---3---3---3---3---3---3-|
C|-2-------2-------2-------2-------|
G|---------------------------------|

A|-----3-------3-------3-------3---|
E|---3---3---3---3---3---3---3---3-|
C|-0-------0-------0-------0-------|
G|---------------------------------|

A|-----3-------3-------3-------3---|
E|---4---4---4---4---4---4---4---3-|
C|-3-------3-------3-------3-------|
G|---------------------------------|

# repeat once for intro, or for throughout the whole song

 

Tab comments (2)
You must be logged in to join the discussion
or Register

 

ArianaGrande avatar
flag for CA(ISO2) (Boca Raton)
Yes
14 Aug 2016
Shioty avatar
flag for PH(ISO2) (Lucena)
Good
13 Aug 2016
About this song

"Someone Like You" is a song performed by English singer-songwriter Adele, released as the second single from her studio album, 21 (2011). The song was composed by Adele and Dan Wilson. Read more on Last.fm.