Someone Like You Uke tab by Adele

6 Chords used in the song: A,Amaj7,F#m,D,Bm,E

Add tab to your SongBook
Tablature / ChordsFont size: A- A A+

Don't know how to read a tab or a chord ? Check out these uke lessons:

Detailed guide to strumming and picking
How to read uke tabs
Reading chord diagrams

# low G G tuning, tenor ukulele

INTRO

A A

A--------------------------------------------------------|
E----------0-----------0-----------0-----------0---------|
C-------1-----1-----1-----1-----1-----1-----1-----1------|
G----2-----------2-----------2-----------2---------------|


Amaj7 Amaj7

A--------------------------------------------------------|
E----------0-----------0-----------0-----------0---------|
C-------1-----1-----1-----1-----1-----1-----1-----1------|
G----1-----------1-----------1-----------1---------------|


F#m F#m

A--------------------------------------------------------|
E----------2-----------2-----------2-----------2---------|
C-------1-----1-----1-----1-----1-----1-----1-----1------|
G----2-----------2-----------2-----------2---------------|


D D

A--------------------------------------------------------|
E----------2-----------2-----------2-----------2---------|
C-------2-----2-----2-----2-----2-----2-----2-----2------|
G----2-----------2-----------2-----------2---------------|



VERSE 1

A A Amaj7 Amaj7
I heard that you're settled down
F#m F#m
That you found a girl
D D
And you're married now

A A Amaj7 Amaj7
I heard that your dreams came true
F#m F#m
Guess she gave you things
D D
I didn't give to you

A A Amaj7 Amaj7
Old friend why are you so shy
F#m F#m
It ain't like you to hold back
D D
Or hide from life



BRIDGE 1

Bm Bm D D
I hate to turn up out of the blue uninvited but
F#m F#m E E
I couldn't stay away I couldn't fight it
Bm Bm
I'd hoped you'd see my face
D D F#m F#m E E
And that you'd be reminded that for me it isn't over


CHORUS 1

A A E E F#m F#m D D
Never mind, I'll find someone like you
A A E E F#m F#m D D
I wish nothing but the best for you too
A A E E F#m F#m D D
Don't forget me I beg I re-member you said
A A E E F#m F#m D D
Sometimes it lasts in love but sometimes it hurts in-stead

A A E E F#m F#m D D
Sometimes it lasts in love but sometimes it hurts instead, yeah


VERSE 2

A A Amaj7 Amaj7
You'd know how time flies
F#m F#m
Only yesterday
D D
was the time of our lives

A A
We were born and raised
Amaj7 Amaj7
In a summer haze
F#m F#m D D
Bound by the surprise of our glory days



BRIDGE 2


Bm Bm D D
I hate to turn up out of the blue uninvited but
F#m F#m E E
I couldn't stay away I couldn't fight it
Bm Bm
I'd hoped you'd see my face
D D F#m F#m E E
And that you'd be reminded that for me it isn't over



CHORUS 2

A A E E F#m F#m D D
Never mind, I'll find someone like you
A A E E F#m F#m D D
I wish nothing but the best for you too
A A E E F#m F#m D D
Don't forget me I beg I re-member you said

A A E E F#m F#m D D
Sometimes it lasts in love but sometimes it hurts in-stead, yeah


INTERLUDE

Bm Bm D D
Nothing compares no worries or cares
F#m F#m E E
Regrets and mistakes their memories make
Bm Bm D D
Who would have known how
Bm Bm F#m F#m D D E E
Bitter-sweet this would taste


CHORUS 3

A A E E F#m F#m D D
Never mind I'll find someone like you
A A E E F#m F#m D D
I wish nothing but the best for you too
A A E E F#m F#m D D
Don't forget me I beg I re-member you said

A A E E F#m F#m D D
Sometimes it lasts in love but sometimes it hurts in-stead



CHORUS 4 / OUTRO

A A E E F#m F#m D D
Never mind I'll find someone like you
A A E E F#m F#m D D
I wish nothing but the best for you too
A A E E F#m F#m D D
Don't forget me I beg I re-member you said

A A E E F#m F#m D D
Sometimes it lasts in love but sometimes it hurts in-stead

A A E E F#m F#m D D
Sometimes it lasts in love but sometimes it hurts in-stead

A A E E F#m F#m D D
Sometimes it lasts in love but sometimes it hurts in-stead
A A
Yeah Yeah

 

Tab comments (2)
You must be logged in to join the discussion
or Register

 

andrewfinch avatar
flag for US(ISO2) (Roscoe, IL)
I love this one!
21 Dec 2013
Twixy avatar
nice chords
07 Dec 2013
About this song

"Someone Like You" was the second single released from her multi-platinum album "21". It managed to reach #1 on the Hot 100 chart in the United States back in 2011. "Someone Like You" was nominated for and won the Grammy Award for Best Pop Solo Performance at the 54th Grammy Awards, which was held on 12 February 2012. Most of 21's lyrics refer to Adele working through the ending of a relationship including this song.