Someone Like You Uke tab by Adele

Ukulele Tab without chords.

Add tab to your SongBook
Tablature / ChordsFont size: A- A A+

Don't know how to read a tab or a chord ? Check out these uke lessons:

Detailed guide to strumming and picking
How to read uke tabs
Reading chord diagrams

[Chords Used]
A A Amaj7 Amaj7 F#m F#m D D E E Dmaj7 Dmaj7 Bm Bm C#m C#m
A-0---0----0--0-2---3----2--4--
E-0---0----2--2-0---2----2--4--
C-1---1----1--2-4---2----2--4--
G-2---1----2--2-1---2----4--1--


[Fingering]
[Normal] [Bridge]
A---------|--2-4-2-4-|
E--2-4-2-4|----------|
C-1---1---|-1---1----|
G---3---3-|---3---3--|




[Intro]
A---------|--------|--------|---------
E--0-0-0-0|-0-0-0-0|-0-0-0-0|-0-0-0-0-
C-1---1---|1---1---|1---1---|1---1----
G---2---2-|--2---2-|--1---1-|--1---1--

A---------|--------|--------|---------|
E--2-2-2-2|-2-2-2-2|-2-2-2-2|--2-2-2-2|
C-1---1---|1---1---|2---2---|-2---2---|
G---2---2-|--2---2-|--2---2-|---2---2-|


[Verse 1]
A---------|--------|--------|---------
E--0-0-0-0|-0-0-0-0|-0-0-0-0|-0-0-0-0-
C-1---1---|1---1---|1---1---|1---1----
G---2---2-|--2---2-|--1---1-|--1---1--
I heard that you're Settled down, that you

A---------|--------|--------|---------|
E--2-2-2-2|-2-2-2-2|-2-2-2-2|--2-2-2-2|
C-1---1---|1---1---|2---2---|-2---2---|
G---2---2-|--2---2-|--2---2-|---2---2-|
Found a girl and you're married now

A---------|--------|--------|---------
E--0-0-0-0|-0-0-0-0|-0-0-0-0|-0-0-0-0-
C-1---1---|1---1---|1---1---|1---1----
G---2---2-|--2---2-|--1---1-|--1---1--
I heard that your Dreams came true, Guess she

A---------|--------|--------|---------|
E--2-2-2-2|-2-2-2-2|-2-2-2-2|--2-2-2-2|
C-1---1---|1---1---|2---2---|-2---2---|
G---2---2-|--2---2-|--2---2-|---2---2-|
Gave you things I didn't give to you

A---------|--------|--------|---------
E--0-0-0-0|-0-0-0-0|-0-0-0-0|-0-0-0-0-
C-1---1---|1---1---|1---1---|1---1----
G---2---2-|--2---2-|--1---1-|--1---1--
Old friend why are you so shy? Ain't like

A---------|--------|--------|---------|
E--2-2-2-2|-2-2-2-2|-2-2-2-2|--2-2-2-2|
C-1---1---|1---1---|2---2---|-2---2---|
G---2---2-|--2---2-|--2---2-|---2---2-|
you to hold back or hide from life


[Pre-Chorus 1]
A--2-2-2-0|--------|---------|---------
E---------|-2-2-2-2|--2-2-2-2|--2-2-2-2
C-4---4---|1---1---|-2---2---|-2---2---
G---1---1-|--2---2-|---2---2-|---2---2-
I hate to turn up out of the blue uninvited
but I couldn't stay away I couldn't fight it

A--2-2-2-0|--------|---------|---------|
E---------|-2-2-2-2|--2-2-2-2|--2-2-2-2|
C-4---4---|1---1---|-2---2---|-2---2---|
G---1---1-|--2---2-|---2---2-|---2---2-|
I hoped that you'd see my face and that
you'd be reminded that for me it isn't over


[Chorus 1]
A---------|--2-2-2-0|--------|--------|
E--0-0-0-0|---------|-2-2-2-2|-2-2-2-2|
C-1---1---|-4---4---|1---1---|2---2---|
G---2---2-|---1---1-|--2---2-|--2---2-|
Never mind, I'll find someone like you

A---------|--2-2-2-0|--------|--------|
E--0-0-0-0|---------|-2-2-2-2|-2-2-2-2|
C-1---1---|-4---4---|1---1---|2---2---|
G---2---2-|---1---1-|--2---2-|--2---2-|
I wish nothing but the best for you too

A---------|--2-2-2-0|--------|--------|
E--0-0-0-0|---------|-2-2-2-2|-2-2-2-2|
C-1---1---|-4---4---|1---1---|2---2---|
G---2---2-|---1---1-|--2---2-|--2---2-|
Don't forget me I beg I remember you said

A---------|--2-2-2-0|--------|--------|
E--0-0-0-0|---------|-2-2-2-2|-2-2-2-2|
C-1---1---|-4---4---|1---1---|2---2---|
G---2---2-|---1---1-|--2---2-|--2---2-|
Sometime it lasts in love, but sometimes
it hurts instead

A---------|--2-2-2-0|--------|--------|
E--0-0-0-0|---------|-2-2-2-2|-2-2-2-2|
C-1---1---|-4---4---|1---1---|2---2---|
G---2---2-|---1---1-|--2---2-|--2---2-|
Sometime it lasts in love, but sometimes
it hurts instead


[Verse 2]
A---------|--------|--------|---------
E--0-0-0-0|-0-0-0-0|-0-0-0-0|-0-0-0-0-
C-1---1---|1---1---|1---1---|1---1----
G---2---2-|--2---2-|--1---1-|--1---1--
You'd know how the time flies

A---------|--------|--------|---------|
E--2-2-2-2|-2-2-2-2|-2-2-2-2|--2-2-2-2|
C-1---1---|1---1---|2---2---|-2---2---|
G---2---2-|--2---2-|--2---2-|---2---2-|
only yesterday was the time of our lives

A---------|--------|--------|---------
E--0-0-0-0|-0-0-0-0|-0-0-0-0|-0-0-0-0-
C-1---1---|1---1---|1---1---|1---1----
G---2---2-|--2---2-|--1---1-|--1---1--
We were born and raised in a summer haze
A---------|--------|--------|---------|
E--2-2-2-2|-2-2-2-2|-2-2-2-2|--2-2-2-2|
C-1---1---|1---1---|2---2---|-2---2---|
G---2---2-|--2---2-|--2---2-|---2---2-|
bound by the surprise of our glory days


[Pre-Chorus 2]
A--2-2-2-0|--------|---------|---------
E---------|-2-2-2-2|--2-2-2-2|--2-2-2-2
C-4---4---|1---1---|-2---2---|-2---2---
G---1---1-|--2---2-|---2---2-|---2---2-
I hate to turn up out of the blue uninvited
but I couldn't stay away I couldn't fight it

A--2-2-2-0|--------|---------|---------|
E---------|-2-2-2-2|--2-2-2-2|--2-2-2-2|
C-4---4---|1---1---|-2---2---|-2---2---|
G---1---1-|--2---2-|---2---2-|---2---2-|
I hoped that you'd see my face and that
you'd be reminded that for me it isn't over


[Chorus 2]
A---------|--2-2-2-0|--------|--------|
E--0-0-0-0|---------|-2-2-2-2|-2-2-2-2|
C-1---1---|-4---4---|1---1---|2---2---|
G---2---2-|---1---1-|--2---2-|--2---2-|
Never mind, I'll find someone like you

A---------|--2-2-2-0|--------|--------|
E--0-0-0-0|---------|-2-2-2-2|-2-2-2-2|
C-1---1---|-4---4---|1---1---|2---2---|
G---2---2-|---1---1-|--2---2-|--2---2-|
I wish nothing but the best for you too

A---------|--2-2-2-0|--------|--------|
E--0-0-0-0|---------|-2-2-2-2|-2-2-2-2|
C-1---1---|-4---4---|1---1---|2---2---|
G---2---2-|---1---1-|--2---2-|--2---2-|
Don't forget me I beg I remember you said

A---------|--2-2-2-0|--------|--------|
E--0-0-0-0|---------|-2-2-2-2|-2-2-2-2|
C-1---1---|-4---4---|1---1---|2---2---|
G---2---2-|---1---1-|--2---2-|--2---2-|
Sometime it lasts in love, but sometimes
it hurts instead

A---------|--2-2-2-0|--------|--------|
E--0-0-0-0|---------|-2-2-2-2|-2-2-2-2|
C-1---1---|-4---4---|1---1---|2---2---|
G---2---2-|---1---1-|--2---2-|--2---2-|
Sometime it lasts in love, but sometimes
it hurts instead


[Bridge]
A--2-2-2-2|--2-2-2-0|--------|--------|
E---------|---------|-2-2-2-2|-2-2-2-2|
C-4---4---|-4---4---|1---1---|1---1---|
G---1---1-|---1---1-|--2---2-|--2---2-|
Nothing compares no worries or cares
regrets and mistakes their memories make

A---------|--------|---------|-4-4-4-4|--
E--2-2-2-2|-2-2-2-2|--2-2-2-2|--------|--
C-2---2---|2---2---|-2---2---|4---4---|--
G---2---2-|--2---2-|---4---4-|--1---1-|--
Who would have known how bittersweet this

A---------|--------|
E--2-2-2-2|-2-2-2-2|
C-2---2---|2---2---|
G---2---2-|--2---2-|
would taste


[Chorus 3]
A---------|--2-2-2-0|--------|--------|
E--0-0-0-0|---------|-2-2-2-2|-2-2-2-2|
C-1---1---|-4---4---|1---1---|2---2---|
G---2---2-|---1---1-|--2---2-|--2---2-|
Never mind, I'll find someone like you

A---------|--2-2-2-0|--------|--------|
E--0-0-0-0|---------|-2-2-2-2|-2-2-2-2|
C-1---1---|-4---4---|1---1---|2---2---|
G---2---2-|---1---1-|--2---2-|--2---2-|
I wish nothing but the best for you too

A---------|--2-2-2-0|--------|--------|
E--0-0-0-0|---------|-2-2-2-2|-2-2-2-2|
C-1---1---|-4---4---|1---1---|2---2---|
G---2---2-|---1---1-|--2---2-|--2---2-|
Don't forget me I beg I remember you said

A---------|--2-2-2-0|--------|--------|
E--0-0-0-0|---------|-2-2-2-2|-2-2-2-2|
C-1---1---|-4---4---|1---1---|2---2---|
G---2---2-|---1---1-|--2---2-|--2---2-|
Sometime it lasts in love, but sometimes
it hurts instead

A---------|--2-2-2-0|--------|--------|
E--0-0-0-0|---------|-2-2-2-2|-2-2-2-2|
C-1---1---|-4---4---|1---1---|2---2---|
G---2---2-|---1---1-|--2---2-|--2---2-|
Sometime it lasts in love, but sometimes
it hurts instead


[Chorus 4/Outro]
A---------|--2-2-2-0|--------|--------|
E--0-0-0-0|---------|-2-2-2-2|-2-2-2-2|
C-1---1---|-4---4---|1---1---|2---2---|
G---2---2-|---1---1-|--2---2-|--2---2-|
Never mind, I'll find someone like you

A---------|--2-2-2-0|--------|--------|
E--0-0-0-0|---------|-2-2-2-2|-2-2-2-2|
C-1---1---|-4---4---|1---1---|2---2---|
G---2---2-|---1---1-|--2---2-|--2---2-|
I wish nothing but the best for you too

A---------|--2-2-2-0|--------|--------|
E--0-0-0-0|---------|-2-2-2-2|-2-2-2-2|
C-1---1---|-4---4---|1---1---|2---2---|
G---2---2-|---1---1-|--2---2-|--2---2-|
Don't forget me I beg I remember you said

A---------|--2-2-2-0|--------|--------|
E--0-0-0-0|---------|-2-2-2-2|-2-2-2-2|
C-1---1---|-4---4---|1---1---|2---2---|
G---2---2-|---1---1-|--2---2-|--2---2-|
Sometime it lasts in love, but sometimes
it hurts instead

A---------|--2-2-2-0|--------|--------|
E--0-0-0-0|---------|-2-2-2-2|-2-2-2-2|
C-1---1---|-4---4---|1---1---|2---2---|
G---2---2-|---1---1-|--2---2-|--2---2-|
Sometime it lasts in love, but sometimes
it hurts instead

 

Tab comments (4)
You must be logged in to join the discussion
or Register

 

JaxX avatar
flag for DE(ISO2) (Berlin)
Agree, but it's still very good like this! I guess they will find a solution to get the rights and remove their on-the-fly protection some day. And least I hope so :)
24 Jan 2012
UkeMaster4 avatar
flag for US(ISO2) (Cottage Grove, MN)
Thank you! It took a lot of time, I wish they would keep the words for it took most of the time to match the timing with the lyrics.
22 Jan 2012
JaxX avatar
flag for DE(ISO2) (Berlin)
you did a great job!
22 Jan 2012
Vee182 avatar
flag for AU(ISO2) (Melbourne)
Crazy hard but good
17 Sep 2011
About this song

Most of 21's lyrics refer to Adele working through the ending of a relationship including this song. She recalled to The Daily Telegraph; "When I did 'Someone Like You' live on Jools Holland, I got so upset wondering and hoping and wishing that my ex would be watching it, I went back to my dressing room and sobbed. Making a record is like standing in the middle of Trafalgar Square naked, you let everyone see your good bits and bad bits. I don't know what possesses me to do that, but I'm not good at anything else." (Source Someone Like You Songfacts).