Chalwa Uke tab by 10ft Ganja Plant

3 Chords used in the song :

Add tab to your SongBook

View these chords for the Baritone

Transpose chords:
Tablature / ChordsFont size: A- A A+

Don't know how to read a tab or a chord ? Check out these uke lessons:

How to read uke tabs
Reading chord diagrams


Play this song whenever your feeling happy excited down going surfing to the beach or just want to CHILL

Songs an instrumental.

you NEED two ukuleles to play this wonderful song as just one alone is almost as good

Chords:

Gm chordGm,F chordF,Gm chordGm,F chordF,Gm chordGm,F chordF,A chordA repeats.


Melody:

A-12-8-5-5-7-3-0-----12-8-5-5-5-7-3-12---12-8-5-5-7-3-0-----0-3-0--0-3-0--
E----------------------------------------------------------3------3------
C------------------------------------------------------------------------
G--------------------------------------------------------------------


fun solo:

A-0--3-5-3-5-3-5-3-0---------0-3-5-8-12-8-5-3-0----------------0-3-5-(slide to )-12
E-------------------3-1-0-1-3------------------3-1-0------0-1-3---------------------
C------------------------------------------------------2-0-2---------------------
G---------------------------------------------------------------------------------

contd:
A-12(slide down to)-3-0-3-5-0-3-5-3-5-0-3-5-0-0-5------
E--------------------------------------------3
C----------------------------------------------
G---------------------------------------------------------------------------------

 

Tab comments (2)
You must be logged in to join the discussion
or Register

 

tonyradda avatar
i think you missed a c before the a but other then that good job great song
10 Apr 2012
ZoZePylon avatar
flag for JP(ISO2) (Tokyo)
Fantastic! Love being able to play a Ganja Plant lick, thank you!
27 Feb 2012
About this song

No information about this song.