Walk (Intro) Tab por Pantera

tablatura Ukulele sin acordes.

Añadir esta tab a su SongBook
Tablature / ChordsFont size: A- A A+

¿ No sabe cómo leer una tablatura o un acorde ?

curso de ukulele

Intro
A|---------------------|------------------|------------------|--------------------|
E|---------------------|------------------|------------------|----------7\0--12\2-|
C|-2--2-3br-2--2-3br-2-|-2-3br-2--2-3br-2-|-2-3br-2--2-3br-2-|-2-3br-2------------|x2
G|---------------------|------------------|------------------|--------------------|

A|---------------8-|---------------6-|---------------4-|-------------------------|
E|---------------6-|---------------4-|---------------4-|-------------------------|
C|-2--2-3br-2--2---|-2--2-3br-2--2---|-2--2-3br-2--2---|-2-2-2-3-2-5-2-6-2-5-2-3-|
G|-----------------|-----------------|-----------------|-------------------------|

A|---------------8-|---------------6-|---------------4-|-------------------------|-------------------------|
E|---------------6-|---------------4-|---------------4-|-------------------------|-------------------------|
C|-2--2-3br-2--2---|-2--2-3br-2--2---|-2--2-3br-2--2---|-2-2-2-3-2-5-2-6-2-5-2-3-|-2-2-2-3-2-5-2-6-2-5-2-3-|
G|-----------------|-----------------|-----------------|-------------------------|-------------------------|

 

Comentarios (2)
Debes iniciar sesión para unirte a la discusión
o Registrarse

 

Igorever21 avatar
flag for RU(ISO2) (Tver)
Amazing!
22 Aug 2018
Edwardeyes avatar
Good tab
18 Aug 2018
Acerca de esta canción

No hay información por esta canción.