Cowboys From Hell (Intro) Tab por Pantera

tablatura Ukulele sin acordes.

Añadir esta tab a su SongBook
Tablature / ChordsFont size: A- A A+

¿ No sabe cómo leer una tablatura o un acorde ?

curso de ukulele

A|-----------------------------5-|\
E|---------5---5---6---5---6h7---| \
C|-4-7-4-7---7---7---7---7-------|x3\
G|-------------------------------| \
x2
A|-------------------------| /
E|---------5---5---6p5-----| /
C|-4-7-4-7---7---7-----7-4-| /
G|-------------------------| /

A|--------------------------5-|
E|--------------------5h6h7---|
C|-4-4--4--4--4--4--4---------|x3
G|----------------------------|

A|--------------------5--------5-|
E|--------------5h6h7----5h6h7---|
C|-4-4--4--4--4------------------|
G|-------------------------------|

A|--------------------------5-| \
E|--------------------5h6h7---| \
C|-4-4--4--4--4--4--4---------| \
G|----------------------------| \
x2
A|----------------------------------| /
E|--------------5h6p5-----5h6p5-----| /
C|-4-4--4--4--4-------7-7-------7-5-| /
G|----------------------------------|/

 

Comentarios (0)
Ningún comentario :(
¿Necesitas ayuda, un consejo para compartir o simplemente quieres hablar sobre esta canción? Comience la discusión

Debes iniciar sesión para unirte a la discusión
o Registrarse

 

Acerca de esta canción

No hay información por esta canción.