Heart Shaped Box (Intro) Tab por Nirvana

tablatura Ukulele sin acordes.

ImprimirAñadir esta tab a su SongBook
Tablature / ChordsFont size: A- A A+

¿ No sabe cómo leer una tablatura o un acorde ?

curso de ukulele

Intro
A|---6-11-------7---|-------4-----4---|
E|-4------4---7---7-|-----4-----4---4-|
C|----------4-------|-1---------------|
G|------------------|-----------------|
|_| |_| |_| |_| | | | | |_|

A|-6-6-11-------7---|---6/8-8---8---8-4-|
E|-4------4---7---7-|---------4---7-7-4-|
C|----------4-------|-1-----------------|
G|------------------|-------------------|
|_| |_| |_| |_| |_| |_| |_| |_|

 

Comentarios (0)
Ningún comentario :(
¿Necesitas ayuda, un consejo para compartir o simplemente quieres hablar sobre esta canción? Comience la discusión

Debes iniciar sesión para unirte a la discusión
o Registrarse

 

Acerca de esta canción

No hay información por esta canción.