Walk Tab por Pantera

tablatura Ukulele sin acordes.

Añadir esta tab a su SongBook
Tablature / ChordsFont size: A- A A+

¿ No sabe cómo leer una tablatura o un acorde ?

curso de ukulele

A|------------------------8-----|
E|--0--0--1b---0-------0--8-----|
C|------------------------10-----|
G|------------------------------|

A|------------------------6-----|
E|--0--0--1b---0-------0--6-----|
C|------------------------8-----|
G|------------------------------|

A|----------------------------4--|
E|--0--0--1b---0-------0---------|
C|----------------------------8--|
G|-------------------------------|

A|-------------------------------------|
E|----------------3------4-----3-------|
C|----------5------------------------5-|
G|-------------------------------------|

A|-3--6---7------|
E|----6---7------|
C|-7--8---9------|
G|---------------|

A|-3----6----3----2---1--|
E|------6----3----2---1--|
C|-7----8----5----4---3--|
G|-----------------------|

A|------------------------8--|
E|--0--0--1b---0-------0--8--|
C|------------------------10--|
G|---------------------------|

A|------------------------6---|
E|--0--0--1b---0-------0--6---|
C|------------------------8---|
G|----------------------------|

A|----------------------------4--|
E|--0--0--1b---0-------0---------|
C|----------------------------8--|
G|-------------------------------|

A|-------------------------------------|
E|----------------3------4-----3-------|
C|----------5------------------------5-|
G|-------------------------------------|

A|-------------------------------------|
E|----------------3------4-----3-------|
C|----------5------------------------5-|
G|-------------------------------------|

A|-------2-/-1----0-------2-/-1--0---|
E|-0-0-0-2-/-1----0-0-0-0-2-/-1--0---|
C|-------4---3----2-------4---3--2---|
G|-----------------------------------|
~
A|----------|-------------------------------------------------------------|
E|----------|----5--4--5--4--3-----3--4--------5--4--3-----3--4--------5--|
C|-7--------|-------------------5-----------------------5-----------------|
G|-4-b---5--|----------------------------7--5--------------------7--5-----|
~
A|--------------------------------------|
E|-4--3-------b----------------b--------|
C|-------5------------------------------|
G|----------9------7--9--5---7---5---7--|

A|-------------------------------------------------------|
E|-------------------------------------------5-----5--|
C|----------------------------------------------------|
G|-5------7--11--7----7--11--7--11--7--5--7--5-----5-----|
H H
A|-----------------------------------------------------|
E|-4--5--4--3--------3---------------------------------|
C|-------------5-----------5--6-----5--6--5-----5--6---|
G|----------------7-----7--------------------7-------b-|
~ ~~ ~~~
A|--------------------------------|-------|------------------------------|
E|--------------------------------|-------|---------------------b----|
C|--6------5--6----6-----5--6-----|-------|--------------------------|
G|-(--b)--------b-------------b---|-------|-10-----12-----13-----15------|
~~~ S S
A|-5----------------|-7---7-------------------|--------------|
E|-1--3-1-3-6---6-3-|---1---------------------|--------------|
C|------------------|-------2-----------------|--------------|
G|-3----------4-----|---------4-5-4br---5b-5b-|-3----5----5--|
S S ~~~~~ S H
A|-----------------|--------------------------------------|
E|----3----3-------|-----3--------3--------3--------3-----|
C|--x--------------|--------------------------------------|
G|-----------------|--7-----7--6-----6--7-----7--6-----6--|
H ~~~ S S S S S S
A|-------------------------5--|--------------------------------------|
E|-----3-----3-----3----------|--2---2-5-----5---------------------|
C|----------------------------|------------------------------------|
G|--7-----7-----7----b--------|----5------7-----5--11--5--8--14--8---|
S S
A|-------------------------------|------------|
E|-------------------b-----|------------|
C|-------------------------|------------|
G|--11--17--11--17--11--17-------|------------|

 

Comentarios (0)
Ningún comentario :(
¿Necesitas ayuda, un consejo para compartir o simplemente quieres hablar sobre esta canción? Comience la discusión

Debes iniciar sesión para unirte a la discusión
o Registrarse

 

Acerca de esta canción

No hay información por esta canción.