Cowboys From Hell Tab por Pantera

tablatura Ukulele sin acordes.

Añadir esta tab a su SongBook
Tablature / ChordsFont size: A- A A+

¿ No sabe cómo leer una tablatura o un acorde ?

curso de ukulele

# This isn't in the same key as the original.
# It has been shifted to work better with the ukulele.

(Intro)

A|-----------------------------1-|
E|---------1---1---2---1---2h3---|
C|-0h3-0h3---3---3---3---3-------|
g|-------------------------------| x3

A|-------------------------|
E|---------1---1---2-1-----|
C|-0h3-0h3---3---3-----3-0-|
g|-------------------------|


(Riff)

A|--------------------------1-|
E|--------------------1h2h3---|
C|-0-0--0--0--0--0--0---------|
g|----------------------------|

A|--------------------------1-|
E|--------------------1h2h3---|
C|-0-0--0--0--0--0--0---------|
g|----------------------------|

A|--------------------------1-|
E|--------------------1h2h3---|
C|-0-0--0--0--0--0--0---------|
g|----------------------------|

A|--------------------1--------1-|
E|--------------1h2h3----1h2h3---|
C|-0-0--0--0--0------------------|
g|-------------------------------|

A|--------------------------1-|
E|--------------------1h2h3---|
C|-0-0--0--0--0--0--0---------|
g|----------------------------|

A|------------------------------------|
E|--------------1h2p1------1h2p1------|
C|-0-0--0--0--0-------3--3-------3--3-|
g|------------------------------------|

A|--------------------------1-|
E|--------------------1h2h3---|
C|-0-0--0--0--0--0--0---------|
g|----------------------------|

A|------------------------------------|
E|--------------1h2p1------1h2p1------|
C|-0-0--0--0--0-------3--3-------3--1-|
g|------------------------------------|


(Verse: Play TWice)

A|--------------------------|
E|--------------------------|
C|-0-0--0--0--0--0--0-0-0-0-|
g|--------------------------|

A|--------------------------1-|
E|--------------------1h2h3---|
C|-0-0--0--0--0--0--0---------|
g|----------------------------|

A|--------------------------|
E|--------------------------|
C|-0-0--0--0--0--0--0-0-0-0-|
g|--------------------------|

A|------------------------------------|
E|--------------1h2p1------1h2p1------|
C|-0-0--0--0--0-------3--3-------3--1-|
g|------------------------------------|


(Gang Vocal Part)

A|-------------------------------|
E|-5-5-5-5-5-5-5-5-5-5-5---7---7-|
C|-3-3-3-3-3-3-3-3-3-3-3---4---4-|
g|-------------------------------|

A|---------------------------------|
E|-5-5-5-5-5-5-5-5-5-5-5---9--8--7-|
C|-3-3-3-3-3-3-3-3-3-3-3---9--5--4-|
g|---------------------------------|

A|--------------------------|
E|--------------------------|
C|-0-0--0--0--0--0--0-0-0-0-|
g|--------------------------|

A|-----------------------|
E|---------------2-1-----|
C|-0-0--0--0--0------3-0-|
g|-----------------------|


# These are all the different riffs from the song. Just piece them together for the rest of the song.

 

Comentarios (0)
Ningún comentario :(
¿Necesitas ayuda, un consejo para compartir o simplemente quieres hablar sobre esta canción? Comience la discusión

Debes iniciar sesión para unirte a la discusión
o Registrarse

 

Acerca de esta canción

No hay información por esta canción.