Market Theme Uke tab by Zelda

Ukulele Tab without chords.

Rate song!
PrintAdd tab to your SongBook

Tablature / Chords (Full Song)

Font size: A- A A+

Artist: 
Album:  unknown
Key: unknownTablature (no chords)
A|--5--5-5-3-2-3----5--5-5-3-5-7-9-10-5---|
E|---------------5------------------------|
C|----------------------------------------|
G|----------------------------------------|



A|-5--5-5-3-2-3----5-3-2-3-2--------------|
E|--------------5------------3------------|
C|----------------------------------------|
G|----------------------------------------|

Uke tab by , 01 Oct 2012

Tab comments (0)

No comment yet :(
Need help, a tip to share, or simply want to talk about this song? Start the discussion!

Something to say?
Share your strumming patterns, chords or tips to play this tab! ;)

About this song: Market Theme

No information about this song.

Did you cover Market Theme on your Ukulele? Share your work!
Submit a cover