The Kids Dont Stand A Chance Uke tab by Vampire Weekend

Ukulele Tab without chords.

8.1/10
PrintAdd tab to your SongBook

Tablature / Chords (

Font size: A- A A+

Artist: 
Album:  unknown
Key: unknownTablature (no chords)
Main riff
G|--5----3--2---------5----3--2-----------------|
C|-------------5--3--------------5--3-----------|
E|------------------------------------4---------|
A|----------------------------------------------|

G|-----2-------2---2--5--3--2-------------------|
C|--3-----5--3-----------------5--3----3--2--3--|
E|----------------------------------4-----------|
A|----------------------------------------------|

Uke tab by , 20 Aug 2010

Tab comments (2)

Something to say?
Share your strumming patterns, chords or tips to play this tab! ;)
Filter by:
rockinghorse avatar
Good, but in a different key to the original.
20 Aug 2010
Comment
notes22 avatar
pretty good tab.
20 Aug 2010
Comment

Top Tabs & Chords by Vampire Weekend, don't miss these songs!

About this song: The Kids Dont Stand A Chance

No information about this song.

Did you cover The Kids Dont Stand A Chance on your Ukulele? Share your work!
Submit a cover