Butterfly Uke tab by UMI

Ukulele Tab without chords.

Add tab to your SongBook
Tablature / ChordsFont size: A- A A+

Don't know how to read a tab or a chord ? Check out these uke lessons:

Detailed guide to strumming and picking
How to read uke tabs
Reading chord diagrams

[intro]
A|-----7------7------2------2-------------|
E|----5------5------0------0--------------|
C|---5------5------0------0---------------|
G|----------------------------------------|

A|-----7------7------2------2--2----------|
E|----5------5------0------0--0-----------|
C|---5------5------0------0--0------------|
G|----------------------------------------|

[verse]
A|-----7------7------2------2-------------|
E|----5------5------0------0--------------|
C|---5------5------0------0---------------|
G|----------------------------------------|
Butterfly, butterfly, where you gonna go tonight

A|-----7------7------2------2-------------|
E|----5------5------0------0--------------|
C|---5------5------0------0---------------|
G|----------------------------------------|
Wish I was just like you, maybe then you'll take me high

[pre-chorus]
A|-----7------7------2------2-------------|
E|----5------5------0------0--------------|
C|---5------5------0------0---------------|
G|----------------------------------------|
Away from it all again, away from my troubles and my sins

A|-----7------7------2------2--2----------|
E|----5------5------0------0--0-----------|
C|---5------5------0------0--0------------|
G|----------------------------------------|
Away from the fears inside, away from the tears I try to hideaway, 'cause

[chorus]
A|-----7------7------2------2-------------|
E|----5------5------0------0--------------|
C|---5------5------0------0---------------|
G|----------------------------------------|
I just wanna make you smile, but I know that'll take a while

A|-----7------7------2------2-------------|
E|----5------5------0------0--------------|
C|---5------5------0------0---------------|
G|----------------------------------------|
'cause I'm trying to find myself

A|-----7------7------2------2-------------|
E|----5------5------0------0--------------|
C|---5------5------0------0---------------|
G|----------------------------------------|
I just wanna make you proud, but I think that I'm running out of

A|-----7------7------2------2--2----------|
E|----5------5------0------0--0-----------|
C|---5------5------0------0--0------------|
G|----------------------------------------|
time, to figure it out

[verse]
A|-----7------7------2------2--2----------|
E|----5------5------0------0--0-----------|
C|---5------5------0------0--0------------|
G|----------------------------------------|
Butterfly, butterfly, take me on your wings and fly, oh

A|-----7------7------2------2-------------|
E|----5------5------0------0--------------|
C|---5------5------0------0---------------|
G|----------------------------------------|
Wish I was just like you, maybe then I'll see the light

[pre-chorus]
A|-----7------7------2------2-------------|
E|----5------5------0------0--------------|
C|---5------5------0------0---------------|
G|----------------------------------------|
And I could be free again, free from my troubles and my sins

A|-----7------7------2------2--2----------|
E|----5------5------0------0--0-----------|
C|---5------5------0------0--0------------|
G|----------------------------------------|
Free from the tears inside, and free from the fears I try to hideaway, 'cause

[chorus]
A|-----7------7------2------2-------------|
E|----5------5------0------0--------------|
C|---5------5------0------0---------------|
G|----------------------------------------|
I just wanna make you smile, but I know that'll take a while

A|-----7------7------2------2-------------|
E|----5------5------0------0--------------|
C|---5------5------0------0---------------|
G|----------------------------------------|
'cause I'm trying to find myself

A|-----7------7------2------2-------------|
E|----5------5------0------0--------------|
C|---5------5------0------0---------------|
G|----------------------------------------|
Oh, and I just wanna make you proud, but I think that I'm running out of

A|-----7------7------2------2--2----------|
E|----5------5------0------0--0-----------|
C|---5------5------0------0--0------------|
G|----------------------------------------|
time, to figure it out

[outro]
A|-----7------7------2------2--2----------|
E|----5------5------0------0--0-----------|
C|---5------5------0------0--0------------|
G|----------------------------------------|
To figure it out, out, out

A|-----7------7------2------2-------------|
E|----5------5------0------0--------------|
C|---5------5------0------0---------------|
G|----------------------------------------|
To figure it out, out

A|-----7------7------2------2--2----------|
E|----5------5------0------0--0-----------|
C|---5------5------0------0--0------------|
G|----------------------------------------|
To figure it out, out, out
(I'm tryna figure this out)

A|-----7------7------2------2-------------|
E|----5------5------0------0--------------|
C|---5------5------0------0---------------|
G|----------------------------------------|
To figure it out, out, out
(I'm tryna figure this out)

 

Tab comments (1)
You must be logged in to join the discussion
or Register

 

Allywayurie avatar
These aren’t chords these are tabs
06 Sep 2020
About this song

No information about this song.