Over The Hills And Far Away (traditional) Uke tab by Traditional

Ukulele Tab without chords.

Add tab to your SongBook
Tablature / ChordsFont size: A- A A+

Don't know how to read a tab or a chord ? Check out these uke lessons:

Detailed guide to strumming and picking
How to read uke tabs
Reading chord diagrams

Over the Hills and Far Away                           

http://fingeruke.blogspot.com/
arranged by fingeruke52
Over the Hills and Far Away



Q E E E E E E E E E E E E H H E E E E E E E E E E E E E E E E
A||--10----9--7--5-----------|-----------5--------|-----0--2--0-----0--2--0--|
E||-----------------8--7--5--|--------------------|--------------------------|
C||--------------------------|--0--------2--------|--------------------------|
G||--------------------------|--2--------2--------|--0-----------0-----------|


Q Q Q. E E E E E E E E E E E E E E E E E E Q Q Q. E E
----------------------|-----0--2--0-----0--2-----|--3----0----0---------|
--0----0----0---------|--------------------------|--0-------------------|
-------0----0------2--|--------------------------|-------0----2---------|
--0-------------------|--0-----------0--------0--|----------------------|


E E E E E E E E E E E E E E E E Q Q Q. E E Q E E E E Q Q
-----0--2--0-----0--2--0--|------------3---------|------------------2----|
--------------------------|--0----0----0------0--|--0--------------------|
--------------------------|-------0--------------|-------2--0--2----2----|
--0-----------0-----------|--0-------------------|-----------------------|


Q Q. Q. Q. E E Q Q Q Q H
--3----0------0------|--5------3--2----0----|---------------------|
--0------------------|-----------------0----|-------0----0--------|
-------0------2------|--2--------------1----|--0---------0--------|
---------------------|----------------------|--0------------------|


Q. E E Q E E E E Q Q H Q. E E Q Q
--5------3--2----0-----|--3----0----0--------|--5------0--2----0----|
-----------------0-----|--0------------------|----------------------|
--2--------------1-----|-------0----2--------|--2--------------0----|
--------------------0--|---------------------|---------5--0---------|


Q Q H Q E E E E Q Q Q Q H
------------3--------|------------------2----|--3----0----0--------|
-------0----0--------|--0--------------------|--0------------------|
-------0-------------|--0----2--0--2----2----|-------0----2--------|
--0------------------|-----------------------|---------------------|


E E E E E E E E E E E E E E E E Q Q Q. E E E E E E E E E E E E E E E E E E
-----0--2--0-----0--2--0--|----------------------|-----0--2--0-----0--2-----|
--------------------------|--0----0----0---------|--------------------------|
--------------------------|-------0----0------2--|--------------------------|
--0-----------0-----------|--0-------------------|--0-----------0--------0--|


Q Q Q. E E E E E E E E E E E E E E E E E E Q Q Q. E E
--3----0----0---------|-----0--2--0-----0--2--0--|------------3---------|
--0-------------------|--------------------------|--0----0----0------0--|
-------0----2---------|--------------------------|-------0--------------|
----------------------|--0-----------0-----------|--0-------------------|


Q E E E E Q Q Q Q. Q. Q. E E Q Q
------------------2----|--3----0------0------|--5------3--2----0----|
--0--------------------|--0------------------|-----------------0----|
--0----2--0--2----2----|-------0------2------|--2--------------1----|
-----------------------|---------------------|----------------------|


Q Q H Q. E E Q E E E E Q Q H
---------------------|--5------3--2----0-----|--3----0----0--------|
-------0----0--------|-----------------0-----|--0------------------|
--0---------0--------|--2--------------1-----|-------0----2--------|
--0------------------|--------------------0--|---------------------|


Q. E E Q Q Q Q H Q E E E E Q Q
--5------0--2----0----|------------3--------|------------------2----|
----------------------|-------0----0--------|--0--------------------|
--2--------------0----|-------0-------------|--0----2--0--2----2----|
---------5--0---------|--0------------------|-----------------------|


Q Q H E E E E E E E E E E E E E E E E Q Q Q. E E
--3----0----0--------|-----0--2--0-----0--2--0--|----------------------|
--0------------------|--------------------------|--0----0----0---------|
-------0----2--------|--------------------------|-------0----0------2--|
---------------------|--0-----------0-----------|--0-------------------|


E E E E E E E E E E E E E E E E Q Q Q. E E E E E E E E E E E E E E E E E E
-----0--2--0-----0--2-----|--3----0----0---------|-----0--2--0-----0--2--0--|
--------------------------|--0-------------------|--------------------------|
--------------------------|-------0----2---------|--------------------------|
--0-----------0--------0--|----------------------|--0-----------0-----------|


Q Q Q. E E Q E E E E Q Q Q Q. Q.
------------3---------|------------------2----|--3----0------0------|
--0----0----0------0--|--0--------------------|--0------------------|
-------0--------------|-------2--0--2----2----|-------0------2------|
--0-------------------|-----------------------|---------------------|


Q. E E Q Q Q Q H Q. E E Q E E E E
--5------3--2----0----|---------------------|--5------3--2----0-----|
-----------------0----|-------0----0--------|-----------------0-----|
--2--------------1----|--0---------0--------|--2--------------1-----|
----------------------|--0------------------|--------------------0--|


Q Q H Q. E E Q Q Q Q H
--3----0----0--------|--5------0--2----0----|------------3--------|
--0------------------|----------------------|-------0----0--------|
-------0----2--------|--2--------------0----|-------0-------------|
---------------------|---------5--0---------|--0------------------|


Q E E E E Q Q Q Q H Q Q H
------------------2----|--3----0----0--------|--3----0----0--------|
--0--------------------|--0------------------|--0------------------|
-------2--0--2----2----|-------0----2--------|-------0----2--------|
-----------------------|---------------------|---------------------|


Q E E E E E E E E E E E E Q. E E H
--10----9--7--5-----------|---------------------||
-----------------8--7--5--|---------3--3--------||
--------------------------|--0------2--2--------||
--------------------------|--2------0--0--------||

 

Tab comments (0)
No comment yet :(
Need help, a tip to share, or simply want to talk about this song? Start the discussion!

You must be logged in to join the discussion
or Register

 

About this song

No information about this song.