Leron Leron Sinta Uke tab by Traditional

Ukulele Tab without chords.

Add tab to your SongBook
Tablature / ChordsFont size: A- A A+

Don't know how to read a tab or a chord ? Check out these uke lessons:

Detailed guide to strumming and picking
How to read uke tabs
Reading chord diagrams

A---0-0-------0------0-2-0---0--------
E-------3-2-3--------------2---3------
C-------------------------------------
G-------------------------------------

A--------------------0-0-2-0----------
E---3-3-2-0-2-3--------------3-2------
C-------------------------------------
G-------------------------------------

A---0-0-------0--------------0-2------
E-------3-2-3--------2-2-2-3----------
C-------------------------------------
G-------------------------------------

A---2-2-5-4-2-0------5-4-4-2-4-5------
E-------------------------------------
C-------------------------------------
G-------------------------------------

 

Tab comments (2)
You must be logged in to join the discussion
or Register

 

Tanginabatkailaganpa avatar
Titepepe
27 Nov 2020
chasm3 avatar
flag for PH(ISO2) (Manila)
pretty cool. practising this for talent's fest. would quite appreciate if there were chords, though.
29 Jul 2018
About this song

No information about this song.