Hark The Herald Uke tab by Traditional

Ukulele Tab without chords.

Add tab to your SongBook
Tablature / ChordsFont size: A- A A+

Don't know how to read a tab or a chord ? Check out these uke lessons:

Detailed guide to strumming and picking
How to read uke tabs
Reading chord diagrams

A|-----------2-2---5-5-5-3-2-0-2-|
E|-------2-----------------------|
C|-2-----------------------------|
G|---0-0---0-----2---------------|

A|---------2-2---5---------------|
E|------2--------------2-2-0-----|
C|-2-------------------------2---|
G|--0-0---0----2---2-2-----------|

A|-5-5-5---3-2-2---5-5-5--3-2-2--|
E|-------------------------------|
C|-------------------------------|
G|-------0-------2------0------2-|

A|------5-3-2-3----2-3-5-----------|
E|-0-0-0---------------------------|
C|---------------------------------|
G|----------------2-----0-0-2-0----|

 

Tab comments (2)
You must be logged in to join the discussion
or Register

 

BonT04 avatar
flag for US(ISO2) (FNORT)
instead of the three 0 Es at the end, play 7 A
11 Oct 2018
BonT04 avatar
flag for US(ISO2) (FNORT)
??
11 Oct 2018
About this song

No information about this song.