Happy Birthday Uke tab by Traditional

4 Chords used in the song: C, G, F, Am

Add tab to your SongBook
Tablature / ChordsFont size: A- A A+

Don't know how to read a tab or a chord ? Check out these uke lessons:

Detailed guide to strumming and picking
How to read uke tabs
Reading chord diagrams

# *With lower G G tuning

C C G G
A|-----0------------3---2-------2---|
E|-3-3-----0-3--------------3-------|
C|-------0--------0-------2---2-----|
G|-----0-----0----------0-----------|


F F Am Am
A-|----0------------5---3-----0-3---|
E|-3-3-----1-3--------------0-------|
C|-------0--------0-------0---------|
G|-----2----------------2-----------|


F F G G F F
A|-----10-----7---------2-----0-----|
E|-3-3- ----5-------8-------3-------|
C|----- --5-------5-------2---0-----|
G|----- 5---------------0-----------|


F F G G
A|-8-8-7-----------7---5-----0-2----|
E|---------5-8---5---------3--------|
C|-------5---------------2----------|
G|-----5---------------0------------|

C C G G
A|-----0-----------3---2-----2-5----|
E|-3-3-----0-3---0---0-----3--------|
C|-------0-----0---------2----------|
G|-----0-----0---------0------------|


F F Am Am
A|-----0-----------5---3-----0-3----|
E|-3-3-----1-3---1---------0--------|
C|-------0-----0---------0----------|
G|-----2-----2---------2------------|


F F C C Am Am G G F F
A|-----10-----7-----3---2---0-------|
E|-3-3- 5-----8-----5---3---1-------|
C|----- 5-----7-----4---2---0-------|
G|----- 5---------------0---2-------|


F F C C
A|-8-8-7-----------5---3-------3----||
E|---------5-8---5---------0-3-3----||
C|-------5---------------0-----0----||
G|-----5---------------0-------0----||

# Feel free to comment and rate, thanks for viewing!

 

Tab comments (1)
You must be logged in to join the discussion
or Register

 

 avatar
flag for (ISO2)
Sorry but not the best :c
19 Nov 2014
About this song

No information about this song.