Carta (guitarra) Uke tab by Toranja

5 Chords used in the song :

Add tab to your SongBook

View these chords for the Baritone

Transpose chords:
Tablature / ChordsFont size: A- A A+

Don't know how to read a tab or a chord ? Check out these uke lessons:

Detailed guide to strumming and picking
How to read uke tabs
Reading chord diagrams

Intro and ending:
C C Fmaj7 Fmaj7
E|---------------------0-----------------------------3----0--------|
B|------------------------1------------1---------1-------------1---|
G|-------0---------0---------0-------------0p2---------------------|
D|-----------0p2-------------------3-------------------------------|
A|---3-------------------------------------------------------------|
E|-----------------------------------------------------------------|

C C Fmaj7 Fmaj7
---------------------0-----------------------------3-------|
------------------------1------------1---------1-----------|
-------0---------0---------0-------------0p2---------------|
-----------0p2-------------------3-------------------------|
---3-------------------------------------------------------|
-----------------------------------------------------------|

C C
Não falei contigo
Fmaj7 Fmaj7
Com medo que os montes e vales que me achas
C C Fmaj7 Fmaj7
Caissem a teus pés
C C
Acredito e entendo

Que a estabilidade lógica
Fmaj7 Fmaj7
De quem não quer explodir
C C Fmaj7 Fmaj7
Faça bem ao escudo que és


C C
Saudade é o ar
Fmaj7 Fmaj7
Que vou sugando e aceitando

Como fruto de Verão
C C Fmaj7 Fmaj7
Jardins do teu beijo
C C
Mas sinto que sabes,
Fmaj7 Fmaj7
Que sentes também num dia maior

Serás trapézio sem rede
C C
Pairar sobre o mundo
Fmaj7 Fmaj7
Em Em tudo o que vejo


G G
É que hoje acordei e lembrei-me
Fmaj7 Fmaj7
Que sou mago e feiticeiro
Am Am Em Em
Que a minha bola de cristal é folha de papel
Fmaj7 Fmaj7
E E nela te pinto nua
G G C C
Nua, numa chama
Fmaj7 Fmaj7 C C
Minha e tua


C C
Desconfio que ainda não reparaste
Fmaj7 Fmaj7
C C
Que o teu destino foi inventado por gira-discos estragados
Fmaj7 Fmaj7
Aos quais te vais moldando
C C Fmaj7 Fmaj7
E E todo o teu planeamento estratégico de sincronização,
C C
Do coração, são leis como paredes e tectos
Fmaj7 Fmaj7
Cujos vidros vais pisando


C C
Anseio o dia em que acordares por cima

De todos os teus numeros,
Fmaj7 Fmaj7
Raizes quadradas,
C C
De somas subtraídas,
Fmaj7 Fmaj7
Sempre com a mesma solução.

Nah!
C C
Podias deixar de fazer da vida um ciclo vicioso,
Fmaj7 Fmaj7
Harmonioso,

Ao teu gesto mimado
C C Fmaj7 Fmaj7
E E à palma da tua mão


G G
É que hoje acordei e lembrei-me
Fmaj7 Fmaj7
Que sou mago e feiticeiro
Am Am Em Em
Que a minha bola de cristal é folha de papel
Fmaj7 Fmaj7
E E nela te pinto nua
G G C C
Nua, numa chama
Fmaj7 Fmaj7 C C
Minha e tua


C C
Desculpa se te fiz fogo e noite
Fmaj7 Fmaj7
Sem pedir autorização por escrito
C C
Ao sindicato dos Deuses
Fmaj7 Fmaj7
Mas não fui eu que te escolhi
C C
Desculpa se te usei
Fmaj7 Fmaj7
Como refugio dos meus sentidos
C C
Pedaços de silêncios perdidos
Fmaj7 Fmaj7
Que voltei a encontrar em ti.


G G
É que hoje acordei e lembrei-me
Fmaj7 Fmaj7
Que sou mago e feiticeiro...
Am Am Em Em

Fmaj7 Fmaj7
...E nela te pinto nua
G G C C
Nua, numa chama
Fmaj7 Fmaj7 C C
Minha e tua
C C Fmaj7 Fmaj7 C C
numa chama minha e tua...

C C
Fmaj7 Fmaj7
Ainda magoas alguém
C C
O tiro passou-me ao lado
Fmaj7 Fmaj7 C C
Ainda magoas alguém
Fmaj7 Fmaj7
Se não te deste a ninguém
C C
Magoaste alguém
Fmaj7 Fmaj7
A A mim passou-me ao lado...
C C
A A mim passou-me ao lado...

 

Tab comments (0)
No comment yet :(
Need help, a tip to share, or simply want to talk about this song? Start the discussion!

You must be logged in to join the discussion
or Register

 

About this song

No information about this song.